Login or Register to remove this ad. | Advertise Here

Phendrana's Edge (Metroid Prime) Guitar Tab

Submitted: Sep 01, 2010 by .kkrieger

5
Average: 5 (6 votes)
Download | Listen
Game: Metroid Prime
Composer(s): Kenji Yamamoto
Style: Arrangement, Fingerstyle, Natural harmonics, Tapped harmonics, Tapping
Series: Metroid

This song is also called Phendrana Drifts

Click here for a video example.

AutoScroll: Slow | Medium | Fast
Name of song: Phendrana's Edge/ Phendrana Drifts
Name of game: Metroid Prime
Composer of song: Kenji Yamamoto
Name of tabber: .kkrieger
Date tab was made: 30.08.2010


     E  E  E  H        E     E  E  E  E  H           E  E  E  Q.     Q     
E||--1--0--1--3-----------|--1--0--1--5--L--------|--0--------------------|
C||--2--0--2--4-----------|--2--0--2--5--L--------|--0--0--L---------2----|
F||-----------------------|-----------------------|-----2--L---------0----|
E||-----------------------|-----------------------|-----------------------|
A||--------------------0--|-----------------------|-----------------------|
D||--0--------------------|--0--------------------|--0--------2-----------|


  Q.     Q.     Q       E  E  E  H        E     E  E  E  E  H         
---------------------|--1--0--1--3-----------|--1--0--1--5--L--------|
---------------------|--2--0--2--4-----------|--2--0--2--5--L--------|
--4------------------|-----------------------|-----------------------|
---------------------|-----------------------|-----------------------|
----------------0----|--------------------0--|-----------------------|
--3------5-----------|--0--------------------|--0--------------------|


  E  E  E   Q.      Q       E  E  E  Q    Q.          E  E  E  E  E  E  E  E   
-----8-------------10----|--5--------------------||---------------------------|
--5--5--L----------------|-----------------------||---------------------------|
--7-----L----------------|-----------0----L------||*-----------0--------0--2--|
-------------------------|--------0--------------||*--------0-----------------|
-------------------------|-----3-----------------||------0--------x--0--------|
--0--------10------------|--3--------------------||---0-----------------------|


  E  E  E  E  E  E  E   E   4x   E  S S E  E   E  E  E  E   
----------------------------||---1----0--------------------|
----------------------------||-------------0h--2-----------|
--------0--2--------2s--4--*||*------------0---------0--2--|
-----0---------------------*||*---------0------------------|
--0-----------x--0----------||------0----------x--0--------|
----------------------------||---0-------------------------|


  E  E  E  E  E  E  E   E     E  S S E  E  E  E  E  E   
---------------------------|---------------------------|
---------------------------|------------0--------------|
--------0--2--------2s--4--|--4----2----0--0-----0--2--|
-----0---------------------|---------0-----------------|
--0-----------x--0---------|-----0---------x--0--------|
---------------------------|--0------------------------|


  E  E  E  E  E  E  E   E     E  S S E  E  E  E  E  E   
---------------------------|---------------------------|
---------------------------|---------------------------|
--------0--2--------2s--4--|-------0----2--4-----0--2--|
-----0---------------------|--0------0-----------------|
--0-----------x--0---------|-----0---------x--0--------|
---------------------------|--0------------------------|


  E  E  E  E  E  E  E   E     E  S S E  E  E  E  E  E   
---------------------------|---------------------------|
---------------------------|---------------------------|
--------0--2--------2s--4--|-------0-------------0--2--|
-----0---------------------|--0------0-----------------|
--0-----------x--0---------|-----0------3--5--0--------|
---------------------------|--0------------------------|


  E  E  E  E  E  E  E   E       Q.     Q.     Q       Q    E  H        E   
----------------------------||---------------------|----------------------|
----------------------------||----------------4----|----------------------|
--------0--2--------2s--4--*||---------------------|--7----9--------------|
-----0---------------------*||---------5------0----|----------5--------L--|
--0-----------x--0----------||--8------0-----------|--0-------------------|
----------------------------||--0------------------|----------------------|


  E  E  E  E  E  E  E  E     E  E  E  E  E  E  E   E   
--1--0--1--3--------------|--1--0--1--5---------------|
--2--0--2--0--------------|--2--0--2------------------|
-----------0--------0--2--|--------0--2--------2s--4--|
--------0-----------------|-----0---------------------|
-----0--------x--0--------|--0-----------x--0---------|
--0-----------------------|---------------------------|


  E  E  E  E  E  E  E  E     E  E  E  E  E  E  E  E   
--0-----------------------|-----------------0--------|
--0--0--------------2-----|--------------------0-----|
-----2-----0--------0--2--|--0--------0-----------2--|
--------0-----------------|--5-----0-----------------|
-----0--------x--0--------|-----3--------x--3--------|
--0-----------------------|--3-----------------------|


  E  E  E  E  E  E  E  E     E  E  E  E  E  E  E   E   
--1--0--1--3--------------|--1--0--1--5---------------|
--2--0--2--0--------------|--2--0--2------------------|
-----------0--------0--2--|--------0--2--------2s--4--|
--------0-----------------|-----0---------------------|
-----0--------x--0--------|--0-----------x--0---------|
--0-----------------------|---------------------------|


  E  E  E  E  E  E   Q       E  E  E  E  E  E  E  E   
-----8--------------10----|--5--------------0--------|
--5--5--------------------|--------------------0-----|
--7--------7--------------|-----------0-----------2--|
--------0-----------------|--------0-----------------|
-----0--------x--0--------|-----3--------x--3--------|
--0-----------------------|--3-----------------------|


    E  E  E  E  E  E  E  E     E  E  E  E  E  E  E  E     
|---0-----------------------|---------------------------||
|------0--------------------|--0------------------------||
|*--------0--2--------2--4--|-----0-----0--------0--2--*||
|*--------------------------|--------0-----------------*||
|---------------x--0--------|--------------x--0---------||
|---0-----------------------|--0------------------------||


   E  S S E  E   E  E  E  E     E  E  E  E  E  E  E   E   
---1----0--------------------|---------------------------|
-------------0h--2-----------|---------------------------|
*------------0---------0--2--|--------0--2--------2s--4--|
*---------0------------------|-----0---------------------|
------0----------x--0--------|--0-----------x--0---------|
---0-------------------------|---------------------------|


  E  S S E  E  E  E  E  E     E  E  E  E  E  E  E   E   
---------------------------|---------------------------|
------------0--------------|---------------------------|
--4----2----0--0-----0--2--|--------0--2--------2s--4--|
---------0-----------------|-----0---------------------|
-----0---------x--0--------|--0-----------x--0---------|
--0------------------------|---------------------------|


  E  S S E  E  E  E  E  E     E  E  E  E  E  E  E   E   
---------------------------|---------------------------|
---------------------------|---------------------------|
-------0----2--4-----0--2--|--------0--2--------2s--4--|
--0------0-----------------|-----0---------------------|
-----0---------x--0--------|--0-----------x--0---------|
--0------------------------|---------------------------|


  E  S S E  E  E  E  E  E     E  E  E  E  E  E  E   E     
---------------------------|----------------------------||
---------------------------|----------------------------||
-------0-------------0--2--|--------0--2--------2s--4--*||
--0------0-----------------|-----0---------------------*||
-----0------3--5--0--------|--0-----------x--0----------||
--0------------------------|----------------------------||


  E  E  E  E  E  E  E  E     E  E  E  E  E  E  E   E   
--1--0--1--3--------------|--1--0--1--5---------------|
--2--0--2--0--------------|--2--0--2------------------|
-----------0--------0--2--|--------0--2--------2s--4--|
--------0-----------------|-----0---------------------|
-----0--------x--0--------|--0-----------x--0---------|
--0-----------------------|---------------------------|


  E  E  E  E  E  E  E  E     E  E  E  E  E  E  E  E   
--0-----------------------|-----------------0--------|
--0--0--------------2-----|--------------------0-----|
-----2-----0--------0--2--|--0--------0-----------2--|
--------0-----------------|--5-----0-----------------|
-----0--------x--0--------|-----3--------x--3--------|
--0-----------------------|--3-----------------------|


  E  E  E  E  E  E  E  E     E  E  E  E  E  E  E   E   
--1--0--1--3--------------|--1--0--1--5---------------|
--2--0--2--0--------------|--2--0--2------------------|
-----------0--------0--2--|--------0--2--------2s--4--|
--------0-----------------|-----0---------------------|
-----0--------x--0--------|--0-----------x--0---------|
--0-----------------------|---------------------------|


  E  E  E  E  E  E   Q       E  E  E  E  E  E  E  E   
-----8--------------10----|--5--------------0--------|
--5--5--------------------|--------------------0-----|
--7--------0--------------|-----------0-----------2--|
--------0-----------------|--------0-----------------|
-----0--------x--0--------|-----3--------x--3--------|
--0-----------------------|--3-----------------------|


    E  E  E  E  E  E  E  E     E  E  E  E  E  E  E  E     
|---0-----------------------|---------------------------||
|------0--------------------|--0------------------------||
|*--------0--2--------2--4--|-----0-----0--------0--2--*||
|*--------------------------|--------0-----------------*||
|---------------x--0--------|--------------x--0---------||
|---0-----------------------|--0------------------------||


        NH  NH  NH   NH    S   T           
   E    S   S   E    E     E   E  E    E   
------<>7-<>7-<>7--<>5--<>12------3p---0--|
------<>7-<>7-<>7--<>5--<>12------4p---0--|
*-----<>7-<>7-<>7--<>5--<>12--------------|
*-----------------------------------------|
------------------------------------------|
---0--------------------------10-------L--|


  T                  NH        NH        NH                     S  T  T  T   
                         |-----|  |------|                                   
  E   E   E   E      E   S     E  E      S E      E  S S E   E  E  E  E  E   
--1p--0h--1p--0h-----1p--0h-------1p-------0h--|-----1-1-1S--3--0-----------|
--2p--0h--2p--0h-----2p--0h-------2p-------0h--|-----2-2-2S--4--0-----------|
------------------<>12-------------------------|-----0-0-0------0-----------|
----------------------------<>12---------------|----------------------------|
--------------0-----------------------<>12-----|-------------------------3--|
--8-------L------------------------------------|--0----------------3--5-----|


  E  E  E  E   E  E  E  E   4x  E  E  E  E   E  E  E  E   
---------------------1------||---------------------0--1--|
-----------2p--0--------2---||-----------2p--0-----------|
--------0------------------*||--------0------------------|
-----3---------------------*||-----3---------------------|
--1------------x--0---------||--1------------x--0--------|
----------------------------||---------------------------|


                   T                                 T              
  E  S S E   E     E   E  E   E     E  S S E   E     E   E  E   E   
-----0-0-0h--1--<>13p--0---------|-----0-0-0h--1--<>13p--0---------|
-----0-0-0------<>12-------------|-----0-0-0------<>12-------------|
-----0-0-0------<>12-------------|-----0-0-0------<>12-------------|
---------------------------------|---------------------------------|
---------------------------------|---------------------------------|
--3-----------------------0h--3--|--3-----------------------0h--3--|


                   T                                 T              
  E  S S E   E     E   E  E   E     E  S S E   E     E   E  E   E   
-----0-0-0h--1--<>13p--0---------|-----0-0-0h--1--<>13p--0---------|
-----0-0-0------<>12-------------|-----0-0-0------<>12-------------|
-----0-0-0------<>12-------------|-----0-0-0------<>12-------------|
---------------------------------|---------------------------------|
---------------------------------|---------------------------------|
--3-----------------------0h--3--|--3-----------------------3p--2--|


                   T                                 T              
  E  S S E   E     E   E  E   E     E  S S E   E     E   E  E   E   
-----0-0-0h--1--<>13p--0---------|-----0-0-0h--1--<>13p--0---------|
-----0-0-0------<>12-------------|-----0-0-0------<>12-------------|
-----0-0-0------<>12-------------|-----0-0-0------<>12-------------|
---------------------------------|---------------------------------|
---------------------------------|---------------------------------|
--0-----------------------0h--3--|--0-----------------------0h--7--|


                   T                               T              
  E  S S E   E     E   E  Q       E  S S E   E     E   E  E   E   
-----0-0-0h--1--<>13p--0-------|-----0-0-0h--1--<>13p--0---------|
-----0-0-0------<>12-----------|-----0-0-0------<>12-------------|
-----0-0-0------<>12-----------|-----0-0-0------<>12-------------|
-------------------------------|---------------------------------|
-------------------------------|---------------------------------|
--0-----------------------0----|--0-----------------------0h--3--|


                   T                                 T              
  E  S S E   E     E   E  E   E     E  S S E   E     E   E  E   E   
-----0-0-0h--1--<>13p--0---------|-----0-0-0h--1--<>13p--0---------|
-----0-0-0------<>12-------------|-----0-0-0------<>12-------------|
-----0-0-0------<>12-------------|-----0-0-0------<>12-------------|
---------------------------------|---------------------------------|
---------------------------------|---------------------------------|
--3-----------------------0h--3--|--3-----------------------3h--5--|


                   T                                 T              
  E  S S E   E     E   E  E   E     E  S S E   E     E   E  E   E   
-----0-0-0h--1--<>13p--0---------|-----0-0-0h--1--<>13p--0---------|
-----0-0-0------<>12-------------|-----0-0-0------<>12-------------|
-----0-0-0------<>12-------------|-----0-0-0------<>12-------------|
---------------------------------|---------------------------------|
---------------------------------|---------------------------------|
--3-----------------------0h--3--|--3-----------------------3p--2--|


                   T                                 T              
  E  S S E   E     E   E  E   E     E  S S E   E     E   E  E   E   
-----0-0-0h--1--<>13p--0---------|-----0-0-0h--1--<>13p--0---------|
-----0-0-0------<>12-------------|-----0-0-0------<>12-------------|
-----0-0-0------<>12-------------|-----0-0-0------<>12-------------|
---------------------------------|---------------------------------|
---------------------------------|---------------------------------|
--0-----------------------0h--3--|--0-----------------------0h--7--|


                   T                               T               
  E  S S E   E     E   E  Q       E  S S E   E     E   E  E   E    
-----0-0-0h--1--<>13p--0-------|-----0-0-0h--1--<>13p--0---------||
-----0-0-0------<>12-----------|-----0-0-0------<>12-------------||
-----0-0-0------<>12-----------|-----0-0-0------<>12-------------||
-------------------------------|---------------------------------||
-------------------------------|---------------------------------||
--0-----------------------0----|--0-----------------------0h--3--||




Duration Legend
---------------
W - whole
H - half
Q - quarter
E - 8th
S - 16th
T - 32nd
X - 64th
. - note dotted
|-n-|  - n-tuplets


Tablature Legend
----------------
L - tied note
x - dead note
g - grace note
(n) - ghost note
> - accentuded note
NH - natural harmonic
AH - artificial harmonic
TH - tapped harmonic
SH - semi harmonic
PH - pitch harmonic
h - hammer on
p - pull off
b - bend
br - bendRelease
pb - preBend
pbr - preBendRelease
brb - bendReleaseBend
\n/ - tremolo bar dip
\n - tremolo bar dive
-/n - tremolo bar Release up
/n\ - tremolo bar inverted dip
/n - tremolo bar return
-\n - tremolo bar Release down
S - shift slide
s - legato slide
/ -  slide into from below or out of upwards
\ -  slide into from above or out of downwards
~ - vibrato
W - wide vibrato
tr - trill
TP - tremolo picking
T - tapping
S - slap
P - pop
< - fade in
^ - brush up
v - brush down

3 comments on Phendrana's Edge

Brilliant.

5

Brilliant.

Fucking. Wow.

5

Fucking. Wow.

Incredible. Easily on of the

5

Incredible. Easily on of the best tabs on the site