Login or Register to remove this ad. | Advertise Here

Cretaphid (Metroid Prime Hunters) Guitar Tab

Submitted: Feb 11, 2012 by TraceTheKriken

0
Download | Listen
Game: Metroid Prime Hunters
Composer(s): Lawrence Schwedler, James Phillipsen
Style: Transcription
Series: Metroid

AutoScroll: Slow | Medium | Fast
Music: Cretaphid Battle Theme
Game: Metroid Prime Hunters
Composer: Lawrence Schwedler & James Phillipsen
Tabber: TraceTheKriken
Date: 9th February 2012

BPM: 160

Pay attention to the 3/4 and 4/4. I don't think I need to explain what they mean.

   3/4
e||------------|------------|------------|------1-3---|
B||3-----------|3-----4-----|3-----------|3---4-------|
G||------1-----|------------|------1-----|------------|
D||------------|------------|------------|------------|
A||------------|------------|------------|------------|
E||------------|------------|------------|------------|

                                                       4/4
e||------------|------------|------------|------1-----|----------------|----------------|
B||3-----------|3-----4-----|3-----------|3---4-------|----------------|----------------|
G||------1-----|------------|------1-----|------------|----------------|----------------|
D||------------|------------|------------|------------|----------------|----------------|
A||------------|------------|------------|------------|----------------|----------------|
E||------------|------------|------------|------------|----------------|----------------|

   3/4
e||------------|------------|------------|------1-3---|
B||3-----------|3-----4-----|3-----------|3---4-------|
G||------1-----|------------|------1-----|------------|
D||------------|------------|------------|------------|
A||------------|------------|------------|------------|
E||------------|------------|------------|------------|

                                                       4/4
e||------------|------------|------------|------1-----|----------------|----------------|
B||3-----------|3-----4-----|3-----------|3---4-------|----------------|----------------|
G||------1-----|------------|------1-----|------------|----------------|----------------|
D||------------|------------|------------|------------|----------------|----------------|
A||------------|------------|------------|------------|----------------|----------------|
E||------------|------------|------------|------------|----------------|----------------|

   3/4
e||0-------1---|4-----------|0-------1---|------------|
B||------------|------------|------------|0-----------|
G||------------|------------|------------|------------|
D||------------|------------|------------|------------|
A||------------|------------|------------|------------|
E||------------|------------|------------|------------|

e||0-------1---|4-------5---|0-------1---|------------|
B||------------|------------|------------|------------|
G||------------|------------|------------|------------|
D||------------|------------|------------|------------|
A||------------|------------|------------|------------|
E||------------|------------|------------|------------|

e||0-------1---|4-----------|0-------1---|------------|
B||------------|------------|------------|0-----------|
G||------------|------------|------------|------------|
D||------------|------------|------------|------------|
A||------------|------------|------------|------------|
E||------------|------------|------------|------------|

                                                       4/4
e||0-------1---|4-------5---|0---1-------|------------|----------------|
B||------------|------------|------------|------------|----------------|
G||------------|------------|------------|------------|----------------|
D||------------|------------|------------|------------|----------------|
A||------------|------------|------------|------------|----------------|
E||------------|------------|------------|------------|----------------|

   3/4
e||------------|------------|------------|------------|
B||5-----------|6-----------|5-----------|4-----------|
G||---------6--|------------|---------6--|------------|
D||7-----------|8-----------|7--------4--|6-----------|
A||---------7--|------------|------------|------------|
E||------------|------------|------------|------------|

                             4/4
e||------------|------------|5---------------|L---------------|L---------------|L---------------|
B||5-----------|6-----------|----------------|----------------|----------------|----------------|
G||---------6--|------------|----------------|----------------|----------------|----------------|
D||7-----------|8-----------|----------------|----------------|----------------|----------------|
A||---------7--|------------|7---------------|L---------------|L---------------|L---------------|
E||------------|------------|----------------|----------------|----------------|----------------|

   3/4
e||------------|------------|------------|------------|
B||5-----------|6-----------|5-----------|4-----------|
G||5-----------|L-----------|4-----------|L-----------|
D||7-----------|6-----------|5-----------|6-----------|
A||------------|------------|------------|------------|
E||------------|------------|------------|------------|

                                          4/4
e||------------|------------|------------|----------------|----------------|
B||5-----------|6-----------|L-----------|L---------------|----------------|
G||5-----------|L-----------|L-----------|L---------------|----------------|
D||7-----------|6-----------|L-----------|L---------------|----------------|
A||------------|------------|------------|----------------|----------------|
E||------------|------------|------------|----------------|----------------|

   3/4
e||------------|------------|------------|------1-3---|
B||3-----------|3-----4-----|3-----------|3---4-------|
G||------1-----|------------|------1-----|------------|
D||------------|------------|------------|------------|
A||------------|------------|------------|------------|
E||------------|------------|------------|------------|

                                                       4/4
e||------------|------------|------------|------1-----|----------------|----------------|
B||3-----------|3-----4-----|3-----------|3---4-------|----------------|----------------|
G||------1-----|------------|------1-----|------------|----------------|----------------|
D||------------|------------|------------|------------|----------------|----------------|
A||------------|------------|------------|------------|----------------|----------------|
E||------------|------------|------------|------------|----------------|----------------|

   3/4
e||0-------1---|4-----------|0-------1---|------------|
B||------------|------------|------------|0-----------|
G||------------|------------|------------|------------|
D||------------|------------|------------|------------|
A||------------|------------|------------|------------|
E||------------|------------|------------|------------|


e||0-------1---|4-----------|0-------1---|------------|
B||------------|------------|------------|--0---------|
G||------------|------------|------------|------------|
D||------------|------------|------------|------------|
A||------------|------------|------------|------------|
E||------------|------------|------------|------------|


   3/4
e||------------|------------|------------|------------|
B||5-----------|6-----------|5-----------|4-----------|
G||---------6--|------------|---------6--|------------|
D||7-----------|8-----------|7--------4--|6-----------|
A||---------7--|------------|------------|------------|
E||------------|------------|------------|------------|

                             4/4
e||------------|------------|5---------------|L---------------|
B||5-----------|6-----------|----------------|----------------|
G||---------6--|------------|----------------|----------------|
D||7-----------|8-----------|----------------|----------------|
A||---------7--|------------|7---------------|L---------------|
E||------------|------------|----------------|----------------|


   3/4
e||------------|------------|------------|------------|
B||5-----------|6-----------|5-----------|4-----------|
G||5-----------|L-----------|4-----------|L-----------|
D||7-----------|6-----------|5-----------|6-----------|
A||------------|------------|------------|------------|
E||------------|------------|------------|------------|

e||------------|------------|------------|-------------|-------------|
B||5-----------|6-----------|------------|-------------|-------------|
G||5-----------|L-----------|------------|-------------|-------------|
D||7-----------|6-----------|------------|-------------|-------------|
A||------------|------------|------------|-------------|-------------|
E||------------|------------|------------|-------------|-------------|

   4/4
e||----------------|
B||----------------|
G||----------------|
D||----------------|
A||----------------|
E||----------------| 16x break (Bass solo)

Repeat