Login or Register to remove this ad. | Advertise Here

VR Training Theme (Metal Gear Solid) Guitar Tab

Submitted: Jul 06, 2009 by Hypoxia

4.5
Average: 4.5 (2 votes)
Download | Listen
Game: Metal Gear Solid
Composer(s): KCE Sound Team Japan, TAPPY
Style: Transcription

AutoScroll: Slow | Medium | Fast
VR Training theme
Metal Gear Solid (VR Missions)
Composed and Performed by KCE Sound Team Japan
Tabbed by Justin Freitas
06/06/09


Just a little something I decided to tab out. Sounds really great with some distortion.


e------------------------------------
B------------------------------------
G-----------------9~--7-------9-8~---
D--------------9-7------10-9~--------
A--7-77777-7-10----------------------
E------------------------------------

e------------------------------------------------------------
B--------------------------------------------------12-13-----
G--8-9-------------8-9-------------8-9-------------11-12-8-9-
D--8-9-------------8-9-------------8-9-------------9--10-8-9-
A--6-7-------------6-7-------------6-7-------------------6-7-
E------0-0-0-0-0-0-----0-0-0-0-0-0-----0-0-0-0-0-0-----------

e--------------------------------------------------
B--------------------------------------------------
G-----------8-9----------8-9----------8-9----------
D---/5-4----8-9--/5-4----8-9--/5-4----8-9--/5-4----
A--------5~-6-7-------5~-6-7-------5~-6-7-------5~-
E--------------------------------------------------

e--------------------------------------------------------
B--9-10----------9-10------------------------------------
G--8-9---/5-4----8-9---/5-4----8-9----------8-9----------
D--6-7--------5~-6-7--------5~-8-9--/5-4----8-9--/5-4----
A------------------------------6-7-------5~-6-7-------5~-
E--------------------------------------------------------

e-----------------------------
B-----------------------------
G-----------------------------
D--9-9-9--9--9-9-9--9--9-9-9--
A--9-9-9--9--9-9-9--9--9-9-9--
E--7-7-7--7--7-7-7--7--7-7-7--

e----------------------------------------
B----------------------------------------
G----------------------------------------
D--10-10-10--10--10-10-10--10--10-10-10--
A--10-10-10--10--10-10-10--10--10-10-10--
E--8--8--8---8---8--8--8---8---8--8--8---

e-----------------------------
B-----------------------------
G-----------------------------
D--9-9-9--9--9-9-9--9--9-9-9--
A--9-9-9--9--9-9-9--9--9-9-9--
E--7-7-7--7--7-7-7--7--7-7-7--

e-------------------------------------
B-------------------------------------
G-------------------------------------
D--10-10-10--10--10-10-10--10--9-9-9--
A--10-10-10--10--10-10-10--10--9-9-9--
E--8--8--8---8---8--8--8---8---7-7-7--

1 comment on VR Training Theme

Good

4

I remember the VR training like it was yesterday...