Login or Register to remove this ad. | Advertise Here

Stage Select (Mega Man) Guitar Tab

Submitted: Dec 30, 2011 by Omnicide

5
Average: 5 (1 vote)
Download | Listen
Game: Mega Man
Composer(s): Yoshihiro Sakaguchi, Manami Matsumae
Style: Arrangement, Fingerstyle
Series: Mega Man

AutoScroll: Slow | Medium | Fast
Stage Select
Megaman
Composed by Manami Matsumae
Arranged by William Geesdorf


Eb Tuning

(Repeat Forever xD)


       E  E  E  E  E  E  E  E  E  E  E  E  E  E  E  E   
D#||---------------------------------------------------|
A#||---2--------0--------3--------2--------0-----2-----|
F#||*-----2--------2--------2--------2-----------------|
C#||*--------2--------2--------2--------2-----2-----2--|
G#||---0--------0--------0--------0--------0-----0-----|
D#||------------------------------------------------4--|


  E  E  E  E  E  E  E  E  E  E  E  E  E  E  E  E     
---------------------------------------------------||
--2--------0-----------------0--------------0------||
-----0--------0-----2--0--------0-----2-----------*||
--------0--------0--------0--------0-----0-----0--*||
---------------------------------------------------||
--3--------3--------3--------3--------3--2--3--4---||




Duration Legend
---------------
W - whole
H - half
Q - quarter
E - 8th
S - 16th
T - 32nd
X - 64th
. - note dotted
|-n-|  - n-tuplets