Login or Register to remove this ad. | Advertise Here

Intro Stage: Departure (Mega Man Zero 2) Guitar Tab

Submitted: May 08, 2009 by CpxAzn (Last updated: May 08, 2009)

4.5
Average: 4.5 (2 votes)
Download | Listen
Game: Mega Man Zero 2
Composer(s): Luna Umegaki, Ippo Yamada, Masaki Suzuki, Chicken Mob, Tsutomu Kurihara
Style: Transcription
Series: Mega Man

This song is also called Opening Stage

Click here for a video example.

AutoScroll: Slow | Medium | Fast

Quick tab, tabbed under 5 min since it was requested
I did not do timing, just tabbed the notes

E||-----------13-|
B||--------------|
G||--12-14-15----|
D||--------------|
A||--------------|
E||--------------|

|-----------------------|
|-----------------------|
|-----------------------|
|--5--4-----3--2--------|
|--------5--------3-----|
|-----------------------|


|--------------------|-----------------------|
|--------------------|-----------------------|
|--12-14-15-12-15-14-|--15-17-19-15-19-17----|
|--------------------|--------------------17-|
|--------------------|-----------------------|
|--------------------|-----------------------|


---------------------------------|-------------------------------------------|
-----13--------------------------|-----------------------13-15br-13----13----|
--15----15-14-12-10-12b-10-------|--12-14-15-12-15-14-15------------15----12-|
---------------------------10-12-|-------------------------------------------|
---------------------------------|-------------------------------------------|
---------------------------------|-------------------------------------------|

  
-----------------------|-----------13-12-11-10-|------------------------|
--11-13-11-------------|-----------------------|--13b-11-13b-13----15br-|
-----------14-12-10-12-|--12-14-15-------------|----------------12------|
-----------------------|-----------------------|------------------------|
-----------------------|-----------------------|------------------------|
-----------------------|-----------------------|------------------------|

       
------------------|------------|--------------------|--------|
--15-16-16b-------|--------15b-|--15-13-------------|--------|
------------15-15-|--15-17-----|--------15-14-12-14-|--12-12-|
------------------|------------|--------------------|--------|
------------------|------------|--------------------|--------|
------------------|------------|--------------------|--------|

4 comments on Intro Stage: Departure

bookmarked

bookmarked

Finally

Finally, Now I can tell that person who commented on my video to come here for the tabs. Nice Job posting this up.

This song makes me feel fuzzy and tingly inside! ^w^

i love this song like 1000%
ever since i heard it, i felt proud of myslef after i killd elpizo... i felt extremely accomplished and the song just puts a tear in my eye whn i think of the title Awakening will... its just one of those songs u can cry to in the happy way! TwT

I had an accident...

I just playd and my pants are all of a sudden sticky!
there is like white crust all over...
i think its probly my milk i had with
my oreos on th desk tht spilld hahaha!