Login or Register to remove this ad. | Advertise Here

Toxic Seahorse (Mega Man X3) Guitar Tab

Submitted: Nov 23, 2009 by ltm_1988

4.75
Average: 4.8 (4 votes)
Download | Listen
Game: Mega Man X3
Composer(s): Toshihiko Horiyama
Style: Alternate picking, Transcription
Series: Mega Man

AutoScroll: Slow | Medium | Fast
Toxic Seahorse
Mega Man X3
Kinuyo Yamashita
ltm_1988
11/20/09


1.

e|---------------------|---------------------|---------------------------------|
B|-4-6-4-6-----------3-|-4-6-4-6-------------|---------------------------------|
G|---------4--4-4--4---|---------4--4-4--4-3-|---1-1-1--1-1--3--3-3--3-3-3-----|
D|---------------------|---------------------|---------------------------------|
A|---------------------|---------------------|---------------------------------|
E|---------------------|---------------------|x4-------------------------------|

e|---------------------|---------------------------------|
B|-4-6-4-6-------------|---------------------------------|
G|---------4--4-4--4-3-|---1-1-1--1-1--3--3-3--3-3-3-----|
D|---------------------|---------------------------------|
A|---------------------|---------------------------------|
E|---------------------|x4-------------------------------|

e|---6-4-2-1-2-1-2-----4-2-4-1-----2-1---------------------------------------|
B|-4---------------4-4-------------------------------------------------------|
G|-----------------------------3-3-------------------------------------------|
D|---------------------------------------------------------------------------|
A|---------------------------------------------------------------------------|
E|---------------------------------------------------------------------------|

e|--------------------------------------------------4-4-4--4-4--4-4-4--4-4--3-3-3--3-3--3-|
B|-4-4-4--4-4--0-0-0--0-0--6-6-6--6-6-------------3---------------------------------------|
G|-------------------------------------3-3-3--3-5-----------------------------------------|
D|----------------------------------------------------------------------------------------|
A|----------------------------------------------------------------------------------------|
E|----------------------------------------------------------------------------------------|

2.

e|-------|-------2-1--------------------------------6-6-6-4-2-1-4-2-1---------1-|
B|-------|---4-------4-4-2-4----------------------4-------------------3-3-3-4---|
G|-------|-3---3--------------3-1-----------1-3-4-------------------------------|
D|2 bars-|------------------------4-3-1-3-4-------------------------------------|
A|-------|----------------------------------------------------------------------|
E|-------|----------------------------------------------------------------------|

e|-2-1-2---------1--2-1-2-6-4-2-1---1---------------------------------11-----|
B|---------4-4-4------------------4------9-11----9-11----9-11----9-11--------|
G|------------------------------------11------11------11------11-------------|
D|---------------------------------------------------------------------------|
A|---------------------------------------------------------------------------|
E|---------------------------------------------------------------------------|

e|----8-9-8-10-10-11-13-11-----7------4--2-1---------------------------------|
B|-11------------------------------------------------------------------------|
G|---------------------------------------------------------------------------|
D|---------------------------------------------------------------------------|
A|---------------------------------------------------------------------------|
E|---------------------------------------------------------------------------|

e|------------------------------------------------------------------------------------------------------------|
B|-7-6---7-6---7-6---7-6---7-6---7-6---7-6---7-6---9766-------6-6-7-9-9-7-6-9-------9-11-9-8------7-6---------|
G|-----8-----8-----8-----8-----8-----8-----8-----8-----87-7-8-----------------------------------------8-------|
D|------------------------------------------------------------------------------------------------------8-6---|
A|----------------------------------------------------------------------------------------------------------9-|
E|------------------------------------------------------------------------------------------------------------|

2 comments on Toxic Seahorse

nice!

5

Great tab! Favorite from x3.

Just learned this today :)

4

Hey man thanks a lot for the tab. It's spot on. After I learned this I switched up the fingering a bit so it's all more or less in on finger position. Then after that I flopped it up and octave.

ROCK N' ROLL