Login or Register to remove this ad. | Advertise Here

Dr. Wily Stage 1 (Mega Man 2) Guitar Tab

Submitted: Jun 12, 2009 by auriplane (Last updated: Feb 04, 2010)

5
Average: 5 (8 votes)
Download | Listen
Game: Mega Man 2
Composer(s): Manami Ietel, Manami Matsumae, Ogeretsu Kun
Style: Arrangement, Fingerstyle
Series: Mega Man

AutoScroll: Slow | Medium | Fast
                  Mega Man II - Dr Wily Stage 1 GUITAR TAB
        Song by: Manami Matsumae, Ogeretsu Kun, Yoshihiro Sakaguchi

             Arranged & tabbed by auriplane (crystal@panix.com)
                              On June 12, 2009


Standard tuning, capo on 4.  I made a GP5 for this (my first GP5 ever hehe)
using tuxguitar.  I hope it works okay!!  

    Part A

E |----------------|----------------|----------------|----0-------0---|
B |--------1-----1-|1---------------|1-----1-1-------|----1---3---1---|
G |2-----2-----2---|2---2---------2-|2---2---2---2---|--------4-------|
D |2---2-----------|----2-------2---|------------2---|----------------|
A |0---------------|0---------------|0---------------|0---------------|
E |----------------|----------------|----------------|----------------|

E |----------------|------------0---|----------------|----------------|
B |--------1-----1-|1-----------1---|----3-------1---|----3-----------|
G |------2-----2---|2---2-----------|----4-------2---|----4-----------|
D |----3-----------|----3-----------|----------------|----------------|
A |----------------|----------------|----------------|----------------|
E |1---------------|1---------------|1---------------|1---------------|

E |----------------|------------0---|----------------|----------------|
B |--------3-----3-|3-----------1---|----3-------1---|----0-----------|
G |------4-----4---|4---4-----------|----4-------2---|----0-------2---|
D |----5-----------|----5-----------|----------------|----------------|
A |----------------|----------------|----------------|----------------|
E |3---------------|3---------------|3---------------|3---------------|

E |--------0---3---|2---------------|--------0---3---|2---------------|
B |----------------|----------------|----------------|--------0---1---|
G |----2-----------|------------2---|----2-----------|--------0---2---|
D |----------------|0---------------|----------------|0---------------|
A |0---------------|----------------|0---------------|------------0---|
E |----------------|----------------|----------------|--------3-------|

    Part B

E |----------------|----------------|----------------|----0-------0---|
B |--------1-----1-|1---------------|1-----1-1-------|----1---3---1---|
G |------2-----2---|2---2---------2-|2---2---2---2---|--------4-------|
D |----2-----------|----2-------2---|------------2---|----------------|
A |0---------------|0---------------|0---------------|0---------------|
E |----------------|----------------|----------------|----------------|

E |----------------|------------0---|----------------|----------------|
B |--------1-----1-|1-----------1---|----3-------1---|----3-----------|
G |------2-----2---|2---2-----------|----4-------2---|----4-----------|
D |----3-----------|----3-----------|----------------|----------------|
A |----------------|----------------|----------------|----------------|
E |1---------------|1---------------|1---------------|1---------------|

E |----------------|------------0---|----------------|----------------|
B |--------3-----3-|3-----------1---|----3-------1---|----0-----------|
G |------4-----4---|4---4-----------|----4-------2---|----0-------2---|
D |----5-----------|----5-----------|----------------|----------------|
A |----------------|----------------|----------------|----------------|
E |3---------------|3---------------|3---------------|3---------------|

E |--------0---3---|2---------------|--------0---3---|2---------------|
B |----------------|----------------|----------------|----------------|
G |----2-----------|------------2---|----2-----------|--------0---2---|
D |----------------|0---------------|----------------|0---------------|
A |0---------------|----------------|0---------------|------------0---|
E |----------------|----------------|----------------|--------3-------|

    Part C

E |----------------|----------------|----------------|----------------|
B |----------------|------------1---|----------------|----------------|
G |2---------------|2-------0-------|----2-------0---|----2-----------|
D |------------3---|--------3-------|----------------|3---------------|
A |--------5-------|----5-----------|--------5-------|--------5-------|
E |6---------------|----------------|6---------------|------------6---|

E |----------------|----------------|----------------|----------------|
B |----------------|----------------|----------------|----------------|
G |0---------------|0---2-----------|----------------|------------0---|
D |--------2-------|2---------------|2---3---2-------|--------2-------|
A |----5-------5---|----------------|------------3---|----3-------3---|
E |5---------------|----------------|5-----------5---|--------5-------|

E |----------------|----------------|----------------|----------------|
B |----------------|------------1---|----------------|----------------|
G |2---------------|2-------0-------|----2-------0---|----2-------0---|
D |------------3---|--------3-------|----------------|3---------------|
A |--------5-------|----5-----------|--------5-------|--------5-------|
E |6---------------|----------------|6---------------|------------6---|

E |----------------|----------------|----------------|0---------------|
B |----------------|----------------|------------0---|----------------|
G |----------------|0-------0---1---|--------1-------|----------------|
D |----------------|----2-----------|----2-----------|2---------------|
A |--------5-------|5---------------|----------------|----------------|
E |3-----------3---|------------4---|--------4-------|4---------------|

    Part D

E |0---------------|------------3---|----1-------0---|----1-------0---|
B |----------------|1-------3-------|----------------|1---------------|
G |--------2-------|----2-----------|--------2-------|--------2-------|
D |----2-------2---|----------------|----------------|----------------|
A |0---------------|----------------|0---------------|----------------|
E |----------------|----------------|----------------|----------------|

E |----------------|------------3---|----1-----------|----1-----------|
B |----------------|--------3-------|------------5---|------------1---|
G |------------2---|----------------|----------------|--------2-------|
D |--------3-------|----3-----------|----------------|3---------------|
A |----3-----------|3---------------|--------3-------|----------------|
E |1---------------|----------------|1---------------|----------------|

E |----------------|--------0-------|----------------|----------------|
B |--------1-------|1---3-------0---|--------0-------|0---------------|
G |----2-------2---|----------------|----0-------0---|----0-------2---|
D |----------------|----------------|----------------|--------0-------|
A |----------------|----------------|----------------|----------------|
E |3---------------|----------------|3---------------|----------------|

E |--------0---3---|2---------------|--------0---3---|2---------------|
B |----------------|----------------|----------------|----------------|
G |----2-----------|------------2---|----2-----------|--------0---2---|
D |----------------|0---------------|----------------|0---------------|
A |0---------------|----------------|0---------------|----------------|
E |----------------|----------------|----------------|--------3---5---|

    Part E

E |----------------|----------------|----------------|0---------------|
B |----------------|----------------|----1-----------|----3---1---0---|
G |----------------|2-------0---2---|------------2---|----------------|
D |--------2-------|----2-----------|--------2-------|----------------|
A |----3-------3---|--------3-------|0---------------|----------------|
E |5---------------|----------------|----------------|----------------|

E |----------------|----------------|----------------|----------------|
B |----------------|----------------|----1-----------|1---3---1-------|
G |2---------------|2-------0---2---|----------------|----------------|
D |--------3-------|----3-----------|------------3---|----------------|
A |----3-------3---|--------3-------|--------3-------|----------------|
E |1---------------|----------------|1---------------|------------1---|

E |----------------|------------0---|----------------|----------------|
B |0---------------|0---------------|--------3-------|1-------0-------|
G |--------0-------|----2---0-------|------------0---|----------------|
D |----0-------0---|----------------|----0-----------|----0-----------|
A |----------------|----------------|----------------|----------------|
E |3---------------|----------------|3---------------|------------3---|

E |----------------|----------------|--------0---3---|2---------------|
B |0---1---0-------|----------------|----------------|--------0---1---|
G |------------2---|------------2---|----2-----------|--------0---2---|
D |----------------|0---------------|----------------|0---------------|
A |0---------------|----------------|0---------------|------------0---|
E |----------------|----------------|----------------|--------3-------|

    Part F

E |----------------|----------------|----------------|----------------|
B |----------------|------------1---|----------------|----------------|
G |2---------------|2-------0-------|----2-------0---|----2-----------|
D |------------3---|--------3-------|----------------|3---------------|
A |--------5-------|----5-----------|--------5-------|--------5-------|
E |6---------------|----------------|6---------------|------------6---|

E |----------------|----------------|----------------|----------------|
B |----------------|----------------|----------------|----------------|
G |0---------------|0---2-----------|----------------|------------0---|
D |--------2-------|2---------------|2---3---2-------|--------2-------|
A |----5-------5---|----------------|------------3---|----3-------3---|
E |5---------------|----------------|5-----------5---|--------5-------|

E |----------------|----------------|----------------|----------------|
B |----------------|------------1---|----------------|----------------|
G |2---------------|2-------0-------|----2-------0---|----2-------0---|
D |------------3---|--------3-------|----------------|3---------------|
A |--------5-------|----5-----------|--------5-------|--------5-------|
E |6---------------|----------------|6---------------|------------6---|

E |----------------|----------------|----------------|0---------------|
B |----------------|----------------|------------0---|------------1---|
G |----------------|0-------0---1---|--------1-------|------------2---|
D |----------------|----2-----------|----2-----------|2-----------3---|
A |--------5-------|5---------------|----------------|----------------|
E |3-----------3---|------------4---|--------4-------|4---------------|

    Part G

E |----------------|--------5---3---|----1-------0---|----------------|
B |----1---1---0---|1-------6---3---|----3-------1---|----3-------3---|
G |----2---2---0---|2-----------0---|----0-------0---|----4-------4---|
D |----3---3---3---|3-------3-------|----------------|----------------|
A |----------------|----------------|----------------|------------0---|
E |----------------|----------------|----------------|----3-----------|

E |----0---0-------|0---------------|----0---0-------|0---------------|
B |----1---1-------|1-----------3---|----1---1-------|1-------3---1---|
G |----2-----------|------------4---|----2-----------|--------4---2---|
D |----------------|----------------|----------------|------------3---|
A |--------2-------|3-------2---0---|--------2-------|3-------2-------|
E |----------------|----------------|----------------|----------------|

E |----------------|--------5---3---|----1-------0---|----------------|
B |----1---1---0---|1-------6---3---|----3-------1---|----3-----------|
G |----2---2---0---|2-----------0---|----0-------0---|----4-----------|
D |----3---3---3---|3-------3-------|----------------|----------------|
A |----------------|----------------|----------------|----------------|
E |----------------|----------------|----------------|----3---4-------|

E |----------------|----------------|----------------|----------------|
B |0---1---0-------|----------------|----------------|----------------|
G |0---2---0---2---|----------------|----0---2-------|0---1---2-------|
D |------------2---|----------------|------------2---|----------------|
A |0-----------0---|----------------|----------------|----------------|
E |----------------|----------------|----------------|----------------|

8 comments on Dr. Wily Stage 1

Excellent! :)

Excellent! :)

Ahh, a favourite of many

Didn't think this could be made into a classical arrangement while still retaining its original feel but you did a suprisingly good job of it.
Also, congrats on your first GP5 ever, hehe.

Thanks! I updated the GP5 on

Thanks! I updated the GP5 on the tab, hopefully it's capo on 4 now. Tell me if it looks wrong or anything @_@;

Nice piece. =)

5

Nice piece. =)

Oh man auriplane, I really

5

Oh man auriplane, I really really like this one. It's just begging to be articulated with cool acoustic resquado strums and body slaps!

I came buckets.

I just love when people

I just love when people manage to make agressive, rock-like songs playable nicely on a classical guitar. Congratulations, sir! Excelent arrangement, I gotta learn this one, now.

Thanks!! I'm not a sir btw

Thanks!! I'm not a sir btw XD

nice !

5

reminds me this famous cover (song) ? http://www.youtube.com/watch?v=Lsj0mY13t9s&feature=related