Login or Register to remove this ad. | Advertise Here

Wood Man (Mega Man 2) Guitar Tab

Submitted: Feb 03, 2012 by JordanVS

5
Average: 5 (2 votes)
Download | Listen
Game: Mega Man 2
Composer(s): Manami Ietel, Manami Matsumae, Ogeretsu Kun
Style: Arrangement, Fingerstyle, Percussion
Series: Mega Man

AutoScroll: Slow | Medium | Fast
Wood Man                                     
Mega Man 2
Manami Ietel,Manami Matsumae,Ogeretsu Kun                                                   


-In measure 29 the  X  representes  dead notes,all the 
other Xs are percussion indications;

- In the first 3 measures the x are in different places to 
represent different types of percussion;

-In measure 5 and 29,you dont have to play all notes 
exactly,just slide from the highest to the lowest while 
struming;


   Guitar

     Q    Q    E  E  Q       E  E  E  Q    E  Q       Q    Q    E  E  Q     
E||-------x----------x----|--------x----------x----|-------x----------x----|
B||-----------------------|------------------------|-----------------------|
G||-----------------------|------------------------|-----------------------|
D||-----------------------|------------------------|-----------------------|
A||-----------------------|------------------------|-----------------------|
E||--x---------x--x-------|--x--x-----x----x-------|--x---------x--x-------|


                ^   v   ^   v   ^  v  ^  v  ^  v  ^  v  ^  v ^   
  Q    Q        S   S   S   S   S  S  S  S  S  S  S  S  S  S E   
------------|--14S-13S-12S-11S-10S-9S-8S-7S-6S-5S-4S-3S-2S-1-0--|
------------|--13S-12S-11S-10S--9S-8S-7S-6S-5S-4S-3S-2S-1S-0-0--|
------------|--14S-13S-12S-11S-10S-9S-8S-7S-6S-5S-4S-3S-2S-1-1--|
------------|------------------------------------------------2--|
------------|---------------------------------------------------|
--x----x----|---------------------------------------------------|


  E  Q.     Q    E  E     Q    Q    E  E  E  E     E  E  E  E  Q    Q     
-----------------------|------------------------|------------------------|
-----0------0----0-----|------------------------|-------------------2----|
-----1------1----1--2--|--L---------2--1-----2--|--L-----------2----2----|
--------------------4--|--L---------4--2-----4--|--L--4-----4--4---------|
-----------------------|------------------------|-----4-----4------------|
-----0------0----0--2--|--2----2----2-----2-----|--2-----2-----2----2----|


  Q    Q    Q    E  E     E  E  Q    E  E  E  E     Q    Q    Q    E  E   
-----------------------|-------------------------|-----------------------|
--0---------0-------2--|--L--0----------0-----0--|--L--------------0--2--|
--0---------0----2--2--|--L--0----------0--2--0--|--L--------------0--1--|
-----------------4-----|-------------------4-----|-----------------------|
-----------------------|-------------------------|-----------------------|
--3----3----3----3-----|--3-----3----3-----3-----|--0----0----0----0-----|


  Q    Q    Q    Q       E  E  E  E  E  E  E  E     E  E  Q    Q    E  E   
----------------------|--------------------------|------------------------|
-------0--------------|-----------------------0--|--L--0-------0----0-----|
-------1----2----1----|--1--2--1-----1--2--1-----|---------------------2--|
----------------------|-----------4-----------2--|--L--2-------2----2--4--|
----------------------|--------------------------|------------------------|
--1----1----1----1----|--2-----2-----2-----2--0--|--0-----0----0----0--2--|


  Q    Q    E  E  E  E     E  E  E  E  Q    Q       Q    Q    Q    E  E   
------------------------|------------------------|-----------------------|
------------------------|-------------------2----|--0---------0-------2--|
--L---------2--1-----2--|--L-----------2----2----|--0---------0----2--2--|
--L---------4--2-----4--|--L--4-----4--4---------|-----------------4-----|
------------------------|-----4-----4------------|-----------------------|
--2----2----2-----2-----|--2-----2-----2----2----|--3----3----3----3-----|


  E  E  Q    E  E  E  E     Q    Q    Q    E  E     Q    Q    Q    Q     
-------------------------|-----------------------|----------------------|
--L--0----------0-----0--|--L--------------0--2--|-------0--------------|
--L--0----------0--2--0--|--L--------------0--1--|-------1----2----1----|
-------------------4-----|-----------------------|----------------------|
-------------------------|-----------------------|----------------------|
--3-----3----3-----3-----|--0----0----0----0-----|--1----1----1----1----|


  E  E  E  E  E  E  E  E     E  E  Q    Q    E  E     Q    Q    E  E  E  E   
--------------------------|------------------------|------------------------|
-----------------------0--|--L--0-------0----0-----|------------------------|
--1--2--1-----1--2--1-----|---------------------2--|--L---------2--1-----2--|
-----------4-----------2--|--L--2-------2----2--4--|--0----0----0-----0-----|
--------------------------|------------------------|------------------------|
--2-----2-----2-----2--0--|--0-----0----0----0--2--|------------------------|


  E  E  E  E  Q    Q       Q    Q    Q    Q       Q    Q    Q    Q     
------------------------|----------------------|----------------------|
-------------------2----|--0-------------------|-----------------0----|
--L-----------2---------|-----------------2----|------------1---------|
--0--4-----4--0----0----|----------------------|--2----4--------------|
--------5---------------|----------------------|----------------------|
------------------------|--0----0----0----0----|--0----0----0----0----|


  Q    Q    E  E  E  E     E  E  E  E  Q    Q     
------------------------|------------------------|
--1---------1--0-----1--|--L--1-----1-------1----|
------------------------|--------------2---------|
------------------------|------------------------|
------------------------|------------------------|
--1----1----1-----1-----|--1-----1-----1----1----|


   ^   v   ^   v   ^  v  ^  v  ^  v  ^  v  ^  v                             
   S   S   S   S   S  S  S  S  S  S  S  S  S  S E     E  E  E  E  H         
--14S-13S-12S-11S-10S-9S-8S-7S-6S-5S-4S-3S-2S-1----|-----------------------|
---x---x---x---x---x--x--x--x--x--x--x--x--x--x-2--|--2-----2-----2--------|
--13S-12S-11S-10S--9S-8S-7S-6S-5S-4S-3S-2S-1S-0-1--|--1-----1-----1--------|
---------------------------------------------------|-----------------------|
---------------------------------------------------|-----------------------|
---------------------------------------------------|-----------------------|


  ^                  
  W                  
--2----------------||
--2----------------||
--2----------------||
--4----------------||
--4----------------||
--2----------------||




Duration Legend
---------------
W - whole
H - half
Q - quarter
E - 8th
S - 16th
. - note dotted

Tablature Legend
----------------
L - tied note
x - dead note
S - shift slide
s - legato slide
^ - brush up