Login or Register to remove this ad. | Advertise Here

Crash Man (Mega Man 2) Bass/Guitar Tab

Submitted: Nov 16, 2011 by JordanVS (Last updated: Nov 17, 2011)

5
Average: 5 (1 vote)
Download | Listen
Game: Mega Man 2
Composer(s): Manami Ietel, Manami Matsumae, Ogeretsu Kun
Style: 2 or more instruments, Alternate picking, Arrangement
Series: Mega Man

AutoScroll: Slow | Medium | Fast
Crash Man                                     
Mega Man 2
Takashi Tateishi


Lead 



     E  Q    E  Q    E.  S    S S S S E  E  Q    E  E   
E||------------------------|---------------------------|
B||------------------------|---------------------------|
G||------------------------|---------------------------|
D||--5-------2--3----4---5-|----5-5---5--2--3----4--5--|
A||--5-------2--3----4---5-|----5-5---5--2--3----4--5--|
E||--3-------0--1----2---3-|----3-3---3--0--1----2--3--|


  E  Q    E  Q    E.  S    S S S S E  E  E  Q.        E  Q    E  Q    E.  S  
------------------------|--------------------------|------------------------|
------------------------|--------------------------|------------------------|
------------------------|--------------------------|------------------------|
--5-------2--3----4---5-|----5-5---5--2--3---------|--5-------2--3----4---5-|
--5-------2--3----4---5-|----5-5---5--2--3---------|--5-------2--3----4---5-|
--3-------0--1----2---3-|----3-3---3--0--1---------|--3-------0--1----2---3-|


  S S S S E  E  H           E  Q    E  Q    E.  S  
-------------------------|------------------------|
-------------------------|------------------------|
-------------------------|------------------------|
----5-5---5--2-----------|--5-------2--3----4-----|
----5-5---5--2-----------|--5-------2--3----4-----|
----3-3---3--0-----------|--3-------0--1----2-----|


   S S  S S  S S  S S  S E   S  S  S  S  S       S Q    S  S S  Q     E.   S  
--15---15---15---15---15----15-17-18-17-15-||--------------------------------|
-------------------------------------------||---15--------15---18----17---15-|
-------------------------------------------||*-------------------------------|
-------------------------------------------||*-------------------------------|
-------------------------------------------||--------------------------------|
-------------------------------------------||--------------------------------|


  S  S  S S  S S  S S  Q     E   E      S Q    S  S S  Q     E.   S  
------------------------------------|-------------------------------|
----15-15---15---15---18----17--16--|--15--------15---18----17---15-|
------------------------------------|-------------------------------|
------------------------------------|-------------------------------|
------------------------------------|-------------------------------|
------------------------------------|-------------------------------|


  S  S  S S  S S  S E.   S S  E  E      S Q    S  S S  Q     E.   S  
------------------------15---15-----|-------------------------------|
----15-15---15---15-----------------|--15--------15---18----17---15-|
------------------------------------|-------------------------------|
------------------------------------|-------------------------------|
------------------------------------|-------------------------------|
------------------------------------|-------------------------------|


  S  S  S S  S S  S S  Q     E   E      S Q    S  S S  Q     E.   S  
------------------------------------|-------------------------------|
----15-15---15---15---18----17--16--|--15--------15---18----17---15-|
------------------------------------|-------------------------------|
------------------------------------|-------------------------------|
------------------------------------|-------------------------------|
------------------------------------|-------------------------------|


  S  S  S S  S S  S E.   S S  E  E      E  E   E  S  S  S S  S S  S  S  S  S  
------------------------15---15-----|----------------------------------------|
----15-15---15---15-----------------|----------------------------------------|
------------------------------------|--16-----16----16-16---16---16-14-12-14-|
------------------------------------|----------------------------------------|
------------------------------------|----------------------------------------|
------------------------------------|----------------------------------------|


  E   Q    Q     E   E   E       E  E   E  S  S  E   E  E   E   
----------------------------|----------------------------------|
----------------------------|------------------------------15--|
--L--12---------12--14--12--|--/16-----16----16-17--16---------|
----------------------------|----------------------------------|
----------------------------|----------------------------------|
----------------------------|----------------------------------|


  H        E   S S  E.  S     E  E   E  S  S  S S  S S  S  S  S  S  
--------------15---15-----|----------------------------------------|
--L-----------15---15-----|--15-----15----15-15---15---15-13-12-13-|
--------------------------|----------------------------------------|
--------------------------|----------------------------------------|
--------------------------|----------------------------------------|
--------------------------|----------------------------------------|


  E   Q    S E.   E   E   E      E  E   E  S  S  E   E  E   E   
-----------------------------|---------------------------------|
--L--12----L-----12--13--12--|--15-----15----15-17--15-----18--|
-----------------------------|---------------------------------|
-----------------------------|---------------------------------|
-----------------------------|---------------------------------|
-----------------------------|---------------------------------|


  Q.     S E.   S S  E.  S     E  E   E  S  S  S S  S S  S  S  S  S  
---------------15---15-----|--15-----15----15-15---15---15----------|
--L------L-----15---15-----|-------------------------------17-15-17-|
---------------------------|----------------------------------------|
---------------------------|----------------------------------------|
---------------------------|----------------------------------------|
---------------------------|----------------------------------------|


  E   Q    S E.   E   E   E      E  E   E  S  S  E   E  E   E   
-----------------------------|--15-----15----15-17--15-----18--|
--L--15----L-----15--17--15--|---------------------------------|
-----------------------------|---------------------------------|
-----------------------------|---------------------------------|
-----------------------------|---------------------------------|
-----------------------------|---------------------------------|


  Q.     S E.   S S  E.  S     E  E   E  S  S  S S  S S  S  S  S  S  
--L------L-----15---15-----|--19-----19----19-19---19---19-17-15-17-|
---------------15---15-----|----------------------------------------|
---------------------------|----------------------------------------|
---------------------------|----------------------------------------|
---------------------------|----------------------------------------|
---------------------------|----------------------------------------|


  E   E.  Q    S  E   E   E      E  E   E  S  S  E   E  E   E   
--L--15----------15--17--15--|--19-----19----19-20--19-----22--|
-----------------------------|---------------------------------|
-----------------------------|---------------------------------|
-----------------------------|---------------------------------|
-----------------------------|---------------------------------|
-----------------------------|---------------------------------|


  Q.     E   S  S  S  S  S  S  S  S     S Q    S  S S  Q     E.   S  
--L------------------------------19-|-------------------------------|
---------------------20-------20----|--15--------15---18----17---15-|
---------------16-19----16-19-------|-------------------------------|
------------17----------------------|-------------------------------|
------------------------------------|-------------------------------|
------------------------------------|-------------------------------|


  S  S  S S  S S  S S  Q     E   E      S Q    S  S S  Q     E.   S  
------------------------------------|-------------------------------|
----15-15---15---15---18----17--16--|--15--------15---18----17---15-|
------------------------------------|-------------------------------|
------------------------------------|-------------------------------|
------------------------------------|-------------------------------|
------------------------------------|-------------------------------|


  S  S  S S  S S  S E.   S S  E  E      S Q    S  S S  Q     E.   S  
------------------------15---15-----|-------------------------------|
----15-15---15---15-----------------|--15--------15---18----17---15-|
------------------------------------|-------------------------------|
------------------------------------|-------------------------------|
------------------------------------|-------------------------------|
------------------------------------|-------------------------------|


  S  S  S S  S S  S S  Q     E   E      S Q    S  S S  Q     E.   S  
------------------------------------|-------------------------------|
----15-15---15---15---18----17--16--|--15--------15---18----17---15-|
------------------------------------|-------------------------------|
------------------------------------|-------------------------------|
------------------------------------|-------------------------------|
------------------------------------|-------------------------------|


  S  S  S S  S S  S E.   S S  E  E      Q     E.   S  S S  E.   S  E   
------------------------15---15-----|--12----12---12-12-----------12--|
----15-15---15---15-----------------|---------------------13----------|
------------------------------------|--------------------------14-----|
------------------------------------|---------------------------------|
------------------------------------|---------------------------------|
------------------------------------|---------------------------------|


   E.   E   S E   S S  S S  S  E   S     Q     E.   S  S S  E.   S  E   
--10--------------------------10--10-|--12----12---12-12-----------12--|
-----------------13---13---13--------|---------------------13----------|
-------12----------------------------|--------------------------14-----|
-----------12------------------------|---------------------------------|
-------------------------------------|---------------------------------|
-------------------------------------|---------------------------------|


   E.   E   S E   S S  S S  S  E   S     Q     E.   S  S S  E.   S  E   
--10--------------------------10--10-|--12----12---12-12-----------12--|
-----------------13---13---13--------|---------------------13----------|
-------12----------------------------|--------------------------14-----|
-----------12------------------------|---------------------------------|
-------------------------------------|---------------------------------|
-------------------------------------|---------------------------------|


   E.   E   S E   S S  S S  S  E   S     Q     E.   S  S S  E.   S  E   
--10--------------------------10--10-|--12----12---12-12---15----------|
-----------------13---13---13--------|--------------------------17-----|
-------12----------------------------|-----------------------------17--|
-----------12------------------------|---------------------------------|
-------------------------------------|---------------------------------|
-------------------------------------|---------------------------------|


   S  S S  S  S S  S  S Q     Q     99x
----------15-15---19-19--------------||
--15-15------------------------------||
------------------------------------*||
-----------------------------17\----*||
-------------------------------------||
-------------------------------------||




Harmony



     W                   W                   W                 
E||-------------------|-------------------|-------------------|
B||-------------------|-------------------|-------------------|
G||-------------------|-------------------|-------------------|
D||-------------------|-------------------|-------------------|
A||-------------------|-------------------|-------------------|
E||-------------------|-------------------|-------------------|


  H        E   S S  E.  S    W                 
--------------15---15-----|-------------------|
--------------15---15-----|-------------------|
--------------------------|-------------------|
--------------------------|-------------------|
--------------------------|-------------------|
--------------------------|-------------------|


  H         S  S S  S  S  S  S  S    W                 
-----------15-15---15-17-18-17-15-|-------------------|
-----------15-15---15-17-18-17-15-|-------------------|
----------------------------------|-------------------|
----------------------------------|-------------------|
----------------------------------|-------------------|
----------------------------------|-------------------|


   S S  S S  S S  S S  S E   S  S  S  S  S       S Q    S  S S  Q     E.   S  
--15---15---15---15---15----15-17-18-17-15-||--------------------------------|
--15---15---15---15---15----15-17-18-17-15-||---12--------12---15----13---12-|
-------------------------------------------||*-------------------------------|
-------------------------------------------||*-------------------------------|
-------------------------------------------||--------------------------------|
-------------------------------------------||--------------------------------|


  S  S  S S  S S  S S  Q     E   E      S Q    S  S S  Q     E.   S  
------------------------------------|-------------------------------|
----12-12---12---12---15----13--13--|--12--------12---15----13---12-|
------------------------------------|-------------------------------|
------------------------------------|-------------------------------|
------------------------------------|-------------------------------|
------------------------------------|-------------------------------|


  S  S  S S  S S  S E.   S S  E  E      S Q    S  S S  Q     E.   S  
------------------------------------|-------------------------------|
----12-12---12---12-----15---15-----|--12--------12---15----13---12-|
------------------------------------|-------------------------------|
------------------------------------|-------------------------------|
------------------------------------|-------------------------------|
------------------------------------|-------------------------------|


  S  S  S S  S S  S S  Q     E   E      S Q    S  S S  Q     E.   S  
------------------------------------|-------------------------------|
----12-12---12---12---15----13--13--|--12--------12---15----13---12-|
------------------------------------|-------------------------------|
------------------------------------|-------------------------------|
------------------------------------|-------------------------------|
------------------------------------|-------------------------------|


  S  S  S S  S S  S E.   S S  E  E      E   E   E   S  S S  S E   E   S  S  
------------------------------------|----------------------15--------------|
----12-12---12---12-----15---15-----|--15------15-----15---------15-----15-|
------------------------------------|------16------16----------------16----|
------------------------------------|--------------------------------------|
------------------------------------|--------------------------------------|
------------------------------------|--------------------------------------|


  S  S  E   E   S  S S  S  S  S  S  S  S  S  
-----------------------15-------------------|
----15-----15-----15------15----15----------|
-------16------16------------16----16-------|
--------------------------------------17----|
-----------------------------------------17-|
--------------------------------------------|


   E   E   E   S  S S  S E   E   S  S  
----------------------15--------------|
--15------15-----15---------15-----15-|
------16------16----------------16----|
--------------------------------------|
--------------------------------------|
--------------------------------------|


  S  S  E   E   S  S S  S  S  S  S  S  S  S  
-----------------------15-------------------|
----15-----15-----15------15----15----------|
-------16------16------------16----16-------|
--------------------------------------17----|
-----------------------------------------17-|
--------------------------------------------|


   E   E   E   S  S S  S E   E   S  S  
----------------------15--------------|
--15------15-----15---------15-----15-|
------16------16----------------16----|
--------------------------------------|
--------------------------------------|
--------------------------------------|


  S  S  E   E   S  S S  S  S  S  S  S  S  S  
-----------------------15-------------------|
----15-----15-----15------15----15----------|
-------16------16------------16----16-------|
--------------------------------------17----|
-----------------------------------------17-|
--------------------------------------------|


   E   E   E   S  S S  S E   E   S  S  
----------------------15--------------|
--15------15-----15---------15-----15-|
------16------16----------------16----|
--------------------------------------|
--------------------------------------|
--------------------------------------|


  S  S  E   E   S  S S  S  S  S  S  S  S  S  
-----------------------15-------------------|
----15-----15-----15------15----15----------|
-------16------16------------16----16-------|
--------------------------------------17----|
-----------------------------------------17-|
--------------------------------------------|


   E   E   E   S  S S  S E   E   S  S  
----------------------15--------------|
--15------15-----15---------15-----15-|
------16------16----------------16----|
--------------------------------------|
--------------------------------------|
--------------------------------------|


  S  S  E   E   S  S S  S  S  S  S  S  S  S  
-----------------------15-------------------|
----15-----15-----15------15----15----------|
-------16------16------------16----16-------|
--------------------------------------17----|
-----------------------------------------17-|
--------------------------------------------|


   E   E   E   S  S S  S E   E   S  S  
----------------------15--------------|
--15------15-----15---------15-----15-|
------16------16----------------16----|
--------------------------------------|
--------------------------------------|
--------------------------------------|


  S  S  E   E   S  S S  S  S  S  S  S  S  S  
-----------------------15-------------------|
----15-----15-----15------15----15----------|
-------16------16------------16----16-------|
--------------------------------------17----|
-----------------------------------------17-|
--------------------------------------------|


   E   E   E   S  S S  S E   E   S  S  
----------------------15--------------|
--15------15-----15---------15-----15-|
------16------16----------------16----|
--------------------------------------|
--------------------------------------|
--------------------------------------|


  S  S  E   E   S  S S  S  S  S  S  S  S  S  
-----------------------15-------------------|
----15-----15-----15------15----15----------|
-------16------16------------16----16-------|
--------------------------------------17----|
-----------------------------------------17-|
--------------------------------------------|


   E   E   E   S  S S  S E   E   S  S  
----------------------15--------------|
--15------15-----15---------15-----15-|
------16------16----------------16----|
--------------------------------------|
--------------------------------------|
--------------------------------------|


  S  S  E   E   S  S S  S  S  S  S  S  S  S     S Q    S  S S  Q     E.   S  
-----------------------15-------------------|-------------------------------|
----15-----15-----15------15----15----------|--12--------12---15----13---12-|
-------16------16------------16----16-------|-------------------------------|
--------------------------------------17----|-------------------------------|
-----------------------------------------17-|-------------------------------|
--------------------------------------------|-------------------------------|


  S  S  S S  S S  S S  Q     E   E      S Q    S  S S  Q     E.   S  
------------------------------------|-------------------------------|
----12-12---12---12---15----13--13--|--12--------12---15----13---12-|
------------------------------------|-------------------------------|
------------------------------------|-------------------------------|
------------------------------------|-------------------------------|
------------------------------------|-------------------------------|


  S  S  S S  S S  S E.   S S  E  E      S Q    S  S S  Q     E.   S  
------------------------------------|-------------------------------|
----12-12---12---12-----15---15-----|--12--------12---15----13---12-|
------------------------------------|-------------------------------|
------------------------------------|-------------------------------|
------------------------------------|-------------------------------|
------------------------------------|-------------------------------|


  S  S  S S  S S  S S  Q     E   E      S Q    S  S S  Q     E.   S  
------------------------------------|-------------------------------|
----12-12---12---12---15----13--13--|--12--------12---15----13---12-|
------------------------------------|-------------------------------|
------------------------------------|-------------------------------|
------------------------------------|-------------------------------|
------------------------------------|-------------------------------|


  S  S  S S  S S  S E.   S S  E  E      Q     E.   S  S S  E.   S  E   
------------------------------------|--12----12---12-12-----------12--|
----12-12---12---12-----15---15-----|--13----13---13-13---13------13--|
------------------------------------|--14----14---14-14---14---14-14--|
------------------------------------|---------------------15---15-----|
------------------------------------|---------------------------------|
------------------------------------|---------------------------------|


   E.   E   S E   S S  S S  S  E   S     Q     E.   S  S S  E.   S  E   
--10--------------8----8----8-10--10-|--12----12---12-12-----------12--|
--12-------------10---10---10-12--12-|--13----13---13-13---13------13--|
--12---12--------10---10---10-12-----|--14----14---14-14---14---14-14--|
-------12--12------------------------|---------------------15---15-----|
-------------------------------------|---------------------------------|
-------------------------------------|---------------------------------|


   E.   E   S E   S S  S S  S  E   S     Q     E.   S  S S  E.   S  E   
--10--------------8----8----8-10--10-|--12----12---12-12-----------12--|
--12-------------10---10---10-12--12-|--13----13---13-13---13------13--|
--12---12--------10---10---10-12-----|--14----14---14-14---14---14-14--|
-------12--12------------------------|---------------------15---15-----|
-------------------------------------|---------------------------------|
-------------------------------------|---------------------------------|


   E.   E   S E   S S  S S  S  E   S     Q     E.   S  S S  E.   S  E   
--10--------------8----8----8-10--10-|--12----12---12-12---15----------|
--12-------------10---10---10-12--12-|--13----13---13-13---17---17-17--|
--12---12--------10---10---10-12-----|--14----14---14-14---17------17--|
-------12--12------------------------|---------------------------------|
-------------------------------------|---------------------------------|
-------------------------------------|---------------------------------|


   S  S S  S  S S  S  S Q     Q    99x
----------15-15---19-19-------------||
--15-15---15-15---20-20-------------||
--16-16---16-16---19-19------------*||
--17-17----------------------17----*||
------------------------------------||
------------------------------------||


Bass



     E  Q    E  Q    E.  S    S S S S E  E  E  E  E  E   
G||------------------------|----------------------------|
D||------------------------|-------------------3-----4--|
A||------------------------|----------------------------|
E||--3-------0--1----2---3-|----3-3---3--0--1-----2-----|


  E  Q    E  Q    E.  S    S S S S E  E  E  E  E  E     E  Q    E  Q    E.  S  
------------------------|----------------------------|------------------------|
------------------------|-------------------3-----4--|------------------------|
------------------------|----------------------------|------------------------|
--3-------0--1----2---3-|----3-3---3--0--1-----2-----|--3-------0--1----2---3-|


  S S S S E  E  E  E  E  E     E  Q    E  Q    E  E     E  E  E  E  E  E  Q     
----------------------------|------------------------|-------------------------|
-------------------3-----4--|------------------------|-------------------------|
----------------------------|------------------------|-------------------------|
----3-3---3--0--1-----2-----|--3-------0--1----2--3--|--3--3--3--3--3--3-------|


    E  Q    E  Q    E.  S    S S S S E  E  E  E  E  E   
|-------------------------|----------------------------|
|*------------------------|-------------------3-----4--|
|*------------------------|----------------------------|
|---3-------0--1----2---3-|----3-3---3--0--1-----2-----|


  E  Q    E  Q    E.  S    S S S S E  E  E  E  E  E     E  Q    E  Q    E.  S  
------------------------|----------------------------|------------------------|
------------------------|-------------------3-----4--|------------------------|
------------------------|----------------------------|------------------------|
--3-------0--1----2---3-|----3-3---3--0--1-----2-----|--3-------0--1----2---3-|


  S S S S E  E  E  E  E  E     E  Q    E  Q    E.  S  
----------------------------|------------------------|
-------------------3-----4--|------------------------|
----------------------------|------------------------|
----3-3---3--0--1-----2-----|--3-------0--1----2---3-|


  S S S S E  E  E  E  E  E     E  Q    E  Q    E.  S  
----------------------------|------------------------|
-------------------3-----4--|------------------------|
----------------------------|------------------------|
----3-3---3--0--1-----2-----|--3-------0--1----2---3-|


  S S S S E  E  E  E  E  E     E  Q    E  Q    E.  S  
----------------------------|------------------------|
-------------------3-----4--|------------------------|
----------------------------|------------------------|
----3-3---3--0--1-----2-----|--3-------0--1----2---3-|


  S S S S E  E  E  E  E  E     E  Q    E  Q    E.  S  
----------------------------|------------------------|
-------------------3-----4--|------------------------|
----------------------------|------------------------|
----3-3---3--0--1-----2-----|--3-------0--1----2---3-|


  S S S S E  E  E  E  E  E     E  Q    E  Q    E.  S  
----------------------------|------------------------|
-------------------3-----4--|------------------------|
----------------------------|------------------------|
----3-3---3--0--1-----2-----|--3-------0--1----2---3-|


  S S S S E  E  E  E  E  E     E  Q    E  Q    E.  S  
----------------------------|------------------------|
-------------------3-----4--|------------------------|
----------------------------|------------------------|
----3-3---3--0--1-----2-----|--3-------0--1----2---3-|


  S S S S E  E  E  E  E  E     E  Q    E  Q    E.  S  
----------------------------|------------------------|
-------------------3-----4--|------------------------|
----------------------------|------------------------|
----3-3---3--0--1-----2-----|--3-------0--1----2---3-|


  S S S S E  E  E  E  E  E     E  Q    E  Q    E.  S  
----------------------------|------------------------|
-------------------3-----4--|------------------------|
----------------------------|------------------------|
----3-3---3--0--1-----2-----|--3-------0--1----2---3-|


  S S S S E  E  E  E  E  E     E  Q    E  Q    E.  S  
----------------------------|------------------------|
-------------------3-----4--|------------------------|
----------------------------|------------------------|
----3-3---3--0--1-----2-----|--3-------0--1----2---3-|


  S S S S E  E  E  E  E  E     E  Q    E  Q    E.  S  
----------------------------|------------------------|
-------------------3-----4--|------------------------|
----------------------------|------------------------|
----3-3---3--0--1-----2-----|--3-------0--1----2---3-|


  S S S S E  E  E  E  E  E     E  Q    E  Q    E.  S  
----------------------------|------------------------|
-------------------3-----4--|------------------------|
----------------------------|------------------------|
----3-3---3--0--1-----2-----|--3-------0--1----2---3-|


  S S S S E  E  E  E  E  E     E  Q    E  Q    E.  S  
----------------------------|------------------------|
-------------------3-----4--|------------------------|
----------------------------|------------------------|
----3-3---3--0--1-----2-----|--3-------0--1----2---3-|


  S S S S E  E  E  E  E  E     E  Q    E  Q    E.  S  
----------------------------|------------------------|
-------------------3-----4--|------------------------|
----------------------------|------------------------|
----3-3---3--0--1-----2-----|--3-------0--1----2---3-|


  S S S S E  E  E  E  E  E     S S S S S S S E  S S S S S S S  
----------------------------|---------------------------------|
-------------------3-----4--|-------------------2-------------|
----------------------------|--------0-----3------3-0-3-0-----|
----3-3---3--0--1-----2-----|--1--------------------------1-0-|


  S S S S S S S S S S S S S E  S    S S S S S S S E  S S S S S S S  
---------------------------------|---------------------------------|
--------------0------------------|-------------------2-------------|
--------2------------------------|--------0-----3------3-0-3-0-----|
--3---------------1---1---1-3--3-|--1--------------------------1-0-|


  S S S S S S S S S S S S S E  S    S S S S S S S E  S S S S S S S  
---------------------------------|---------------------------------|
--------------0------------------|-------------------2-------------|
--------2------------------------|--------0-----3------3-0-3-0-----|
--3---------------1---1---1-3--3-|--1--------------------------1-0-|


  S S S S S S S S S S S S S E  S    S S S S S S S E  S S S S S S S  
---------------------------------|---------------------------------|
--------------0------------------|-------------------2-------------|
--------2------------------------|--------0-----3------3-0-3-0-----|
--3---------------1---1---1-3--3-|--1--------------------------1-0-|


  S S S S S S S S H        99x
----------------------------||
--------------0-0----------*||
--------2-2----------------*||
--3-3-----------------------||