Login or Register to remove this ad. | Advertise Here

Boss (Mega Man 2) Guitar Tab

Submitted: Aug 09, 2011 by mrjordak2

4
Average: 4 (1 vote)
Download | Listen
Game: Mega Man 2
Composer(s): Manami Ietel, Manami Matsumae, Ogeretsu Kun
Style: 2 or more instruments, Transcription
Series: Mega Man

AutoScroll: Slow | Medium | Fast

Lead
     W                    W                    W                 
E||--------------------|--------------------|-------------------|
B||--------------------|--------------------|-------------------|
G||--------------------|--------------------|--2----------------|
D||--1~----------------|--4~----------------|-------------------|
A||--------------------|--------------------|-------------------|
E||--------------------|--------------------|-------------------|


  H         S S  S S  S S  S  S      S S S S S S S E  S S S S S S S  
------------5-8-11-8-11-8-11-14-||---8-8---8---8-8----8-8---8---8-8-|
--------------------------------||----------------------------------|
--5~----------------------------||*---------------------------------|
--------------------------------||*---------------------------------|
--------------------------------||----------------------------------|
--------------------------------||----------------------------------|


  S S S S Q     S.S.  S  E   E     S S S S S S S E  S S S S S S S  
--8-8---8------15----15-13--15--|--6-6---6---6-6----6-6---6---6-6-|
--------------------------------|---------------------------------|
--------------------------------|---------------------------------|
--------------------------------|---------------------------------|
--------------------------------|---------------------------------|
--------------------------------|---------------------------------|


  S S S S Q     S.S.  S  E   E     S S S S S S S E  S S S S S S S  
--6-6---6------15----15-13--15--|--5-5---5---5-5----5-5---5---5-5-|
--------------------------------|---------------------------------|
--------------------------------|---------------------------------|
--------------------------------|---------------------------------|
--------------------------------|---------------------------------|
--------------------------------|---------------------------------|


  S S S S Q     S.S.  S  E   E     S S S S S S S E  S S S S S S S  
--5-5---5------15----15-13--15--|---------------------------------|
--------------------------------|--6-6---6---6-6----6-6---6---6-6-|
--------------------------------|---------------------------------|
--------------------------------|---------------------------------|
--------------------------------|---------------------------------|
--------------------------------|---------------------------------|


  Q     Q      Q      Q      8x
--------7~----10~----15~-----||
--8~-------------------------||
----------------------------*||
----------------------------*||
-----------------------------||
-----------------------------||




Harmony

     Q    S S S S H           Q    S S  S  S H         
E||---------5--------------|---------8----------------|
B||-----------7------------|-----------10-------------|
G||--5----------8-5--------|--8-----------11-8--------|
D||------------------------|--------------------------|
A||------------------------|--------------------------|
E||------------------------|--------------------------|


   Q    S  S  S  S  H            Q    S  S  S  S  H         
----------11-----------------|----------14-----------------|
-------------13--------------|-------------13----13--------|
--11------------14-11--------|--14------------14-----------|
-----------------------------|-----------------------------|
-----------------------------|-----------------------------|
-----------------------------|-----------------------------|


    S S S S S S S E  S S S S S S S    S S S S Q     S.S.  S  E   E   
|----------------------------------|---------------11----11-10--11--|
|---8-8---8---8-8----8-8---8---8-8-|--8-8---8-----------------------|
|*---------------------------------|--------------------------------|
|*---------------------------------|--------------------------------|
|----------------------------------|--------------------------------|
|----------------------------------|--------------------------------|


  S S S S S S S E  S S S S S S S    S S S S Q     S.S.  S  E   E   
---------------------------------|---------------11----11-10--11--|
--8-8---8---8-8----8-8---8---8-8-|--8-8---8-----------------------|
---------------------------------|--------------------------------|
---------------------------------|--------------------------------|
---------------------------------|--------------------------------|
---------------------------------|--------------------------------|


  S S S S S S S E  S S S S S S S    S S S S Q     S.S.  S  E   E   
---------------------------------|---------------11----11-10--11--|
--6-6---6---6-6----6-6---6---6-6-|--6-6---6-----------------------|
---------------------------------|--------------------------------|
---------------------------------|--------------------------------|
---------------------------------|--------------------------------|
---------------------------------|--------------------------------|


  S S S S S S S E  S S S S S S S    Q     Q     Q      Q      8x
---------------------------------|--------------7~----10~-----||
--3-3---3---3-3----3-3---3---3-3-|--3~----8~------------------||
---------------------------------|---------------------------*||
---------------------------------|---------------------------*||
---------------------------------|----------------------------||
---------------------------------|----------------------------||