Login or Register to remove this ad. | Advertise Here

Boss (Mega Man 2) Bass Tab

Submitted: Aug 04, 2011 by mrjordak2 (Last updated: Aug 11, 2011)

0
Download | Listen
Game: Mega Man 2
Composer(s): Manami Ietel, Manami Matsumae, Ogeretsu Kun
Style: Alternate picking, Transcription
Series: Mega Man

AutoScroll: Slow | Medium | Fast
Mega Man 2 - Boss
Tabbed by mrjordak2


Intro

      S  S  S S  S  S  S S  S  S  S S  S  S  S S  
G|----------------------------------------------|
D|--10-10-10-8-10-10-10-8-10-10-10-8-10-10-10-8-|
A|----------------------------------------------|
E|----------------------------------------------|


    S  S  S S  S  S  S S  S  S  S S  S  S  S S  
|----------------------------------------------|
|--10-10-10-8-10-10-10-8-10-10-10-8-10-10-10-8-|
|----------------------------------------------|
|----------------------------------------------|


    S  S  S S  S  S  S S  S  S  S S  S  S  S S  
|----------------------------------------------|
|--10-10-10-8-10-10-10-8-10-10-10-8-10-10-10-8-|
|----------------------------------------------|
|----------------------------------------------|


    S  S  S S  S  S  S S  H  
|--------------------------------------------|
|--10-10-10-8-10-10-10-8---------------------|
|--------------------------------------------|
|--------------------------------------------|

Main Tune

     S  S S  S E   S  S S S  S S E  S  S      S  S S  S E   S  S S S  S S E  S  S  
||--------------8--10---------------------|--------------8--10---------------------|
||*--10-10---10-------10---8-10-9---------|---10-10---10-------10---8-10-9---------|
||*-------------------------------8--9-10-|--------------------------------8--9-10-|
||----------------------------------------|----------------------------------------|


     S  S S  S E   S  S S S  S S E  S  S      S  S S  S E   S  S S S  S S E  S  S  
|--------------8--10---------------------|--------------8--10---------------------|
|---10-10---10-------10---8-10-9---------|---10-10---10-------10---8-10-9---------|
|--------------------------------8--9-10-|--------------------------------8--9-10-|
|----------------------------------------|----------------------------------------|


     S  S S  S E   S  S S S  S S E  S  S      S  S S  S E   S  S S S  S S E  S  S  
|--------------8--10---------------------|--------------8--10---------------------|
|---10-10---10-------10---8-10-9---------|---10-10---10-------10---8-10-9---------|
|--------------------------------8--9-10-|--------------------------------8--9-10-|
|----------------------------------------|----------------------------------------|


     S  S S  S E   S  S S S  S S E  S  S     S  S  S S  S  S S  S S  S  S S  S  S S S    
|--------------8--10---------------------|--------12---10-12-----------12---10-12-8-7--||
|---10-10---10-------10---8-10-9---------|--------------------------------------------*||
|--------------------------------8--9-10-|--10-10--------------10---10----------------*||
|----------------------------------------|---------------------------------------------||

And repeat bars 5 to 12 until the song fades out.

2 comments on Boss

In the main repeating part,

In the main repeating part, both the 4th to last and 2nd to last notes were 9, not 8, so I changed them. Also, there's no bassline for those eight notes in bar four; the triangle wave plays a "tom" sound (pitch sweep down), so the bassline cuts out.

Thanks for informing me of the problems.

As I rarely use this site though, I have no idea how to edit a tab.

If possible, could you edit the 4th bar so that it's correct, and take out my NOTE at the beginning of the tab.

Thanks.