Login or Register to remove this ad. | Advertise Here

Beach (Mario Kart 64) Bass Tab

Submitted: Oct 04, 2011 by auriplane

0
Download | Listen
Game: Mario Kart 64
Composer(s): Kenta Nagata
Style: Fingerstyle, Transcription
Series: Mario

AutoScroll: Slow | Medium | Fast
                   Mario Kart 64 - Beach BASS TAB
                       Composed by Kenta Nagata

                Tabbed by auriplane (crystal@panix.com)


Four-string bass, standard tuning.

        Intro

   S E   E   E   S H
G |----------4---------------------|
D |--------------------------------|
A |--------------------------------|
E |7-7---7-------7-----------------|

         Part A

   Q       Q       E.    S E   E    Q       Q       E.    S E   E
G |--------4---------------4-------|--------6---------------6-------|  \
D |--------------------------------|4---------------4-----4---------|   | x9
A |7---------------7-----7---------|----------------------------4---|   |
E |----------------------------7---|--------------------------------|  /


   Q       Q       E.    S E   E    Q       Q       E.    S E   E
G |--------4---------------4-------|--------6-----------------------|
D |--------------------------------|4---------------4-----4---------|
A |7---------------7-----7---------|------------------------7---6---|
E |----------------------------7---|--------------------------------|

         Part B

   Q       Q       E.    S E   E    Q       Q       E.    S E   E
G |--------------------------------|--------4---------------4-------|  \
D |--------7---------------7-------|--------------------------------|   | x3
A |5---------------5-----5---------|7---------------7-----7---------|   |
E |----------------------------5---|----------------------------7---|  /


   Q       Q       E.    S E   E    Q       Q       Q       Q
G |--------------------------------|--------------------------------|
D |7-----------------------7-------|7-----------------------7-------|
A |--------------------------------|--------------------------------|
E |--------5-------5-----5-----5---|--------5-------5---------------|

        Repeat back to Part A.