Login or Register to remove this ad. | Advertise Here

Underworld (Legend of Zelda) Bass/Guitar Tab

Submitted: Aug 05, 2011 by Lawarsi (Last updated: Aug 11, 2011)

3
Average: 3 (1 vote)
Download | Listen
Game: Legend of Zelda
Composer(s): Koji Kondo
Style: 2 or more instruments, Transcription
Series: Legend of Zelda

This song is also called Dungeon

AutoScroll: Slow | Medium | Fast
Lead
     E  E  E  E  E  E  E  E     E  E  E  E  E  E  E  E   
E||--------------------------|--------------------------|
B||-----------4-----------4--|-----------4-----------4--|
G||--------7-----------7-----|--------7-----------7-----|
D||-----8-----------8--------|-----8-----------8--------|
A||--------------------------|--------------------------|
E||--------------------------|--------------------------|


  E  E  E  E  E  E  E  E     E  E  E  E  E  E  E  E   
--------------------------|--------------------------|
-----------4-----------4--|-----------4-----------4--|
--------7-----------7-----|--------7-----------7-----|
-----7-----------7--------|-----7-----------7--------|
--------------------------|--------------------------|
--------------------------|--------------------------|


  E  E  E  E  E  E  E  E     E  E  E  E  E  E  E  E   
--------------------------|--------------------------|
-----------4-----------4--|-----------4-----------4--|
--------7-----------7-----|--------7-----------7-----|
-----6-----------6--------|-----6-----------6--------|
--------------------------|--------------------------|
--------------------------|--------------------------|


  E  E  E  E  E  E  E  E     E  E  E  E  E  E  E  E   
--------------------------|--------------------------|
-----------4-----------4--|-----------4-----------4--|
--------7-----------7-----|--------7-----------7-----|
-----5-----------5--------|-----5-----------5--------|
--------------------------|--------------------------|
--------------------------|--------------------------|


  E  E  E  E  E  E  E  E     E  E  E  E  E  E  E  E   
--------------------------|--------------------------|
-----------3-----------3--|-----------3-----------3--|
--------5-----------5-----|--------5-----------5-----|
-----5-----------5--------|-----5-----------5--------|
--------------------------|--------------------------|
--------------------------|--------------------------|


  E  E  E  E  E  E  E  E     E  E  E  E  E  E  E  E   
--------------------------|--------------------------|
-----------3-----------3--|-----------3-----------3--|
--------5-----------5-----|--------5-----------5-----|
-----5-----------5--------|-----5-----------5--------|
--------------------------|--------------------------|
--------------------------|--------------------------|


  E  E  E  E  E  E  E  E  E  E     Q.     Q.      Q.     E   3x
--------------------------------|------------------------8---||
--------------------------------|---------7------10----------||
-----------5--------5--8-----5--|--8------------------------*||
-----4--7-----4--7--------7-----|---------------------------*||
--------------------------------|----------------------------||
--------------------------------|----------------------------||

Rhythm
      E   E  E  E   E  E  E  E      E   E  E  E   E  E  E  E   
E||-----------------------------|-----------------------------|
B||-----------------------------|-----------------------------|
G||-----------------------------|-----------------------------|
D||-----------------------------|-----------------------------|
A||--10---L--------10--L--------|--10---L--------10--L--------|
E||-----------------------------|-----------------------------|


  E  E  E  E  E  E  E  E     E  E  E  E  E  E  E  E   
--------------------------|--------------------------|
--------------------------|--------------------------|
--------------------------|--------------------------|
--------------------------|--------------------------|
--9--L--------9--L--------|--9--L--------9--L--------|
--------------------------|--------------------------|


  E  E  E  E  E  E  E  E     E  E  E  E  E  E  E  E   
--------------------------|--------------------------|
--------------------------|--------------------------|
--------------------------|--------------------------|
--------------------------|--------------------------|
--8--L--------8--L--------|--8--L--------8--L--------|
--------------------------|--------------------------|


  E  E  E  E  E  E  E  E     E  E  E  E  E  E  E  E   
--------------------------|--------------------------|
--------------------------|--------------------------|
--------------------------|--------------------------|
--------------------------|--------------------------|
--7--L--------7--L--------|--7--L--------7--L--------|
--------------------------|--------------------------|


  E  E  E  E  E  E  E  E     E  E  E  E  E  E  E  E   
--------------------------|--------------------------|
--------------------------|--------------------------|
--------------------------|--------------------------|
--------------------------|--------------------------|
--6--L--------6--L--------|--6--L--------6--L--------|
--------------------------|--------------------------|


  E  E  E  E  E  E  E  E     E  E  E  E  E  E  E  E   
--------------------------|--------------------------|
--------------------------|--------------------------|
--------------------------|--------------------------|
--------------------------|--------------------------|
--5--L--------5--L--------|--5--L--------5--L--------|
--------------------------|--------------------------|


  E  E  E  E  E  E  E  E  E  E     Q    Q    Q    Q    Q     3x
--------------------------------|----------------------------||
--------------------------------|----------------------------||
--------------------------------|---------------------------*||
--------------------------------|---------------------------*||
--3--L--------------------------|----------------------------||
--------------------------------|----------------------------||


Bass
      W                    H         H            H         H         
G||--------------------|----------------------|----------------------|
D||--------------------|----------------------|----------------------|
A||--------------------|------------17--------|--16------------------|
E||--15----------------|--18------------------|------------14--------|
B||--------------------|----------------------|----------------------|


  W                    W                   E  E  E   E  E  E   E  E   
-------------------|--------------------|----------------------------|
-------------------|--------------------|----------------------------|
-------------------|--------------------|---------------------16--L--|
--L----------------|--13----------------|--L--L--L--16--L--L---------|
-------------------|--------------------|----------------------------|


   H         H           W                    E   E   H.            
----------------------|-------------------|------------------------|
----------------------|-------------------|------------------------|
--15------------------|-------------------|------------------------|
------------12--------|--L----------------|------------------------|
----------------------|-------------------|--16--15--16------------|


   E  E  E   E  E  E   E  E      E   E   H.            
-----------------------------|------------------------|
-----------------------------|------------------------|
------------18--L--L--17--L--|------------------------|
--15--L--L-------------------|------------------------|
-----------------------------|--15--14--15------------|


   E  E  E   E  E  E   E  E      E   E   E   E   E   E   E   E   E   E   
-----------------------------|------------------------------------------|
-----------------------------|------------------------------------------|
------------17--L--L--16--L--|----------------------15------15--18--15--|
--15--L--L-------------------|------14--17--14--17------17--------------|
-----------------------------|--15--------------------------------------|


   E   E   E   E   E   E   E   E   E   E   3x
-------------------------------------------||
------16--19--16--------------------------*||
--18--------------18--15--18--15-----------||
----------------------------------17--14--*||
-------------------------------------------||

3 comments on Underworld

I think there's a couple

I think there's a couple things i needa fix. I'll repost once its done

EDIT: minor errors fixed :3

bass

Your tab for your bass is exellent

Your bass tab is exellent

3

Your bass tab is exellent