Login or Register to remove this ad. | Advertise Here

Fi's Theme (Legend of Zelda: Skyward Sword) Guitar Tab

Submitted: Dec 31, 2011 by kchu

5
Average: 5 (1 vote)
Download | Listen
Game: Legend of Zelda: Skyward Sword
Composer(s): Koji Kondo, Hajime Wakai, Mahito Yokota, Shiho Fujii, Takeshi Hama
Style: Alternate picking, Transcription
Series: Legend of Zelda

AutoScroll: Slow | Medium | Fast
                                Fi's Main Theme                                 


                          Hajime Wakai, Shiho Fujii, Mahito Yokota, Takeshi Hama
flute part
standard tuning



     T  H        E  T T T Q       S S S S E  Q    S Q    S  
E||----------------------------|--------5----------------L-|
B||--3s-5-----------5-7-8-7----|--5-7-8---7--5------5------|
G||--------------7-------------|------------------7--------|
D||----------------------------|---------------------------|
A||----------------------------|---------------------------|
E||----------------------------|---------------------------|


  T  H        E  T T T Q       S S S S E  Q    S Q    S  
----------------------------|--------5----------------L-|
--3s-5-----------5-7-8-7----|--5-7-8---7--5------5------|
--------------7-------------|------------------7--------|
----------------------------|---------------------------|
----------------------------|---------------------------|
----------------------------|---------------------------|


  S S H        E  T T T E  T    S S S  S E  Q    T Q    S.  
------5-----------5-7-8-7--L-|--5-7-8-10-7--5----3-5----L--|
----5----------8-------------|-----------------------------|
--7--------------------------|-----------------------------|
-----------------------------|-----------------------------|
-----------------------------|-----------------------------|
-----------------------------|-----------------------------|


  S Q    Q    Q.     S    S Q    Q    Q.     S    Q    H.             
--3-5---------0------L-|--3-5---------0------L-|-------0------------||
---------3-------------|---------3-------------|--3-----------------||
-----------------------|-----------------------|--------------------||
-----------------------|-----------------------|--------------------||
-----------------------|-----------------------|--------------------||
-----------------------|-----------------------|--------------------||




Duration Legend
---------------
W - whole
H - half
Q - quarter
E - 8th
S - 16th
T - 32nd
X - 64th
. - note dotted
|-n-|  - n-tuplets


Tablature Legend
----------------
L - tied note
x - dead note
g - grace note
(n) - ghost note
> - accentuded note
NH - natural harmonic
AH - artificial harmonic
TH - tapped harmonic
SH - semi harmonic
PH - pitch harmonic
h - hammer on
p - pull off
b - bend
br - bendRelease
pb - preBend
pbr - preBendRelease
brb - bendReleaseBend
\n/ - tremolo bar dip
\n - tremolo bar dive
-/n - tremolo bar Release up
/n\ - tremolo bar inverted dip
/n - tremolo bar return
-\n - tremolo bar Release down
S - shift slide
s - legato slide
/ -  slide into from below or out of upwards
\ -  slide into from above or out of downwards
~ - vibrato
W - wide vibrato
tr - trill
TP - tremolo picking
T - tapping
S - slap
P - pop
< - fade in
^ - brush up
v - brush down