Login or Register to remove this ad. | Advertise Here

Great Fairy Fountain (Legend of Zelda: Ocarina of Time) Guitar Tab

Submitted: Dec 19, 2010 by GuitarGuy

5
Average: 5 (5 votes)
Download | Listen
Game: Legend of Zelda: Ocarina of Time
Composer(s): Koji Kondo
Style: 2 or more instruments, Transcription
Series: Legend of Zelda

AutoScroll: Slow | Medium | Fast
Gtr I (E A D G B E) - Great Fairy Fountain
Arranged by: Romyl Lopez a.k.a GuitarGuy


    Q=80
   
    Gtr I
    S S S S  S S S S S S S S S S S S   S S S S  S S S S S S S S S S S S
||--5--------3-------2-------3-------|-3--------1-------0-------1-------|
||o---3---3----3---3---3---3---3---3-|---1---1----1---1---1---1---1---1-|
||------3--------3-------3-------3---|-----2--------2-------2-------2---|
||-----------------------------------|----------------------------------|
||o----------------------------------|----------------------------------|
||-----------------------------------|----------------------------------|


  
    S S S S  S S S S S S S S S S S S   S S S S  S S S S S S S S S S S S
*|-----------------------------------|----------------------------------|
*|--6--------5-------4-------5-------|-5--------3-------2-------3-------|
*|----3---3----3---3---3---3---3---3-|---2---2----2---2---2---2---2---2-|
*|------5--------5-------5-------5---|-----3--------3-------3-------3---|
*|-----------------------------------|----------------------------------|
*|-----------------------------------|----------------------------------|


  
    S S S S  S S S S S S S S S S S S   S S S S  S S S S S S S S S S S S
*|--5--------3-------2-------3-------|-6--------5-------4-------5-------|
*|----3---3----3---3---3---3---3---3-|---4---4----4---4---4---4---4---4-|
*|------3--------3-------3-------3---|-----5--------5-------5-------5---|
*|-----------------------------------|----------------------------------|
*|-----------------------------------|----------------------------------|
*|-----------------------------------|----------------------------------|


 
    S S S S  S S S S S S S S S S S S   S S S S S S S S S S S S S S S S
*|--8--------6-------5-------6-------|-5-------3------------------------||
*|-----------------------------------|-----------------6-------5-------o||
*|----7---7----7---7---7---7---7---7-|---3---3---3---3---3---3---3---3--||
*|------8--------8-------8-------8---|-----5-------5-------5-------5----||
*|-----------------------------------|---------------------------------o||
*|-----------------------------------|----------------------------------||




Gtr II (E A D G B E) - Great Fairy Fountain 
Arranged by: Romyl Lopez a.k.a. GuitarGuy

    Q=80
   
    Gtr II
    E  S  S +Q    S  S S S S  S S  S   E   S S  +Q      S S S S S S S S
||-------------------------8---------|--------------------------8-------|
||o------10-(10)--8-10-8-----10-8----|-------8--(8)-------6-8-6---8-6---|
||----10--------------------------10-|-----5--------------------------5-|
||--8--------------------------------|-7--------------------------------|
||o----------------------------------|----------------------------------|
||-----------------------------------|----------------------------------|


  
   E  S S   +Q      S S S S S S S S    E  S S    +Q     S S S S S S S S
*|--------------------------3--------|------0----(0)--------0---3-1-8-6-|
*|------6---(6)---------6-5---5-3----|------------------------3---------|
*|----3---------------------------3--|----2-----------------------------|
*|-5------------------5--------------|-3------------------3-------------|
*|-----------------------------------|----------------------------------|
*|-----------------------------------|----------------------------------|


  4/4
   E  S S    +Q  S S  S S S  S S  S    E   S S  +Q    S S S S  S  S S S
*|------------------------8----------|-------8--(8)-------8-5-11-10-8-5-|
*|------10--(10)---8-10-8---10-8-----|----------------------------------|
*|---10--------------------------10--|-----5----------7-5---------------|
*|-8---------------------------------|-7--------------------------------|
*|-----------------------------------|----------------------------------|
*|-----------------------------------|----------------------------------|


  
   S S S S  +Q       S S S S S S S S   S S S S  +Q     S S S S S S S S
*|-------6--(6)----------6-5-8-6-----|-------6--(6)--------6-3-----3----||
*|-----3-----------------------------|-----5-------------------5-3---5-o||
*|---3---------------------------9-7-|---5---------------5--------------||
*|-5-------------------8-------------|-5--------------------------------||
*|-----------------------------------|---------------------------------o||
*|-----------------------------------|----------------------------------||

4 comments on Great Fairy Fountain

Excellent tab, easy to play,

5

Excellent tab, easy to play, and sounds great! :D

Thank

5

Thank

Joonas22 saidThankOnly one

Joonas22 said

Thank

Only one "thank", no thanks will be given.

Well said Joonas22, well said.

Haha

Haha