Login or Register to remove this ad. | Advertise Here

Skull Kid (Legend of Zelda: Majora's Mask) Guitar Tab

Submitted: Dec 08, 2010 by Link Strife07 (Last updated: Dec 13, 2010)

3.333335
Average: 3.3 (3 votes)
Download | Listen
Game: Legend of Zelda: Majora's Mask
Composer(s): Koji Kondo, Toru Minegishi
Style: Transcription
Series: Legend of Zelda

AutoScroll: Slow | Medium | Fast
Skull Kid
Legend of Zelda: Majora's Mask
Koji Kondo
Link Strife07
12/8/10



e|--4-------3----------0------------------
B|--2-------1--3---6---5------------------
G|-------------1---4---3------------------
D|----------------------------------------
A|----------------------------------------
E|----------------------------------------

e|--4-------3------8---7------------------
B|--2-------1--3---6---5------------------
G|-------------1--------------------------
D|----------------------------------------
A|----------------------------------------
E|----------------------------------------

e|--4-------3----------0------------------
B|--2-------1--3---6---5------------------
G|-------------1---4---3------------------
D|----------------------------------------
A|----------------------------------------
E|----------------------------------------

e|----------------------------------------
B|----------------------------------------
G|--5-------4--7---8---7---10--9----------
D|--3-------2--5---6---5---8---7----------
A|----------------------------------------
E|----------------------------------------

e|----------------------------------------
B|--4-------3------4---3---6--------------
G|--2-------1--5---2---1---4--------------
D|-------------3--------------------------
A|----------------------------------------
E|----------------------------------------

e|--4-------3----------0------------------
B|--2-------1--3---6---5------------------
G|-------------1---4---3------------------
D|----------------------------------------
A|----------------------------------------
E|----------------------------------------

e|--4-------3------8---7------------------
B|--2-------1--3---6---5------------------
G|-------------1--------------------------
D|----------------------------------------
A|----------------------------------------
E|----------------------------------------