Login or Register to remove this ad. | Advertise Here

Rosa Sisters (Legend of Zelda: Majora's Mask) Guitar Tab

Submitted: Jan 16, 2011 by Link Strife07 (Last updated: Jan 16, 2011)

5
Average: 5 (1 vote)
Download | Listen
Game: Legend of Zelda: Majora's Mask
Composer(s): Koji Kondo, Toru Minegishi
Style: Transcription
Series: Legend of Zelda

AutoScroll: Slow | Medium | Fast
Rosa Sisters
Legend of Zelda: Majora's Mask
Koji Kondo
Link Strife07
1/16/11


e|--7----6---2---5-----5--------------|
B|--------------6-6---6-6-------------|
G|------------------------------------|
D|------------------------------------|
A|------------------------------------|
E|------------------------------------|x2

e|------------1----4--5--1------------|
B|---------3----------------3---------|
G|--3---4------------------------3----|
D|------------------------------------|
A|------------------------------------|
E|------------------------------------|

e|------------------------------------|
B|--------3---------------------------|
G|---4-----------4--------------------|
D|------------------------------------|
A|------------------------------------|
E|------------------------------------|

e|------------1----4--7--4------------|
B|---------3----------------3---------|
G|--3---4------------------------3----|
D|------------------------------------|
A|------------------------------------|
E|------------------------------------|

e|------------------------------------|
B|---------3-----3--------------------|
G|--------------4-4-------------------|
D|------------------------------------|
A|------------------------------------|
E|------------------------------------|