Login or Register to remove this ad. | Advertise Here

Pirates' Fortress (Legend of Zelda: Majora's Mask) Guitar Tab

Submitted: May 15, 2011 by Link Strife07

4.5
Average: 4.5 (2 votes)
Download | No audio :(
Game: Legend of Zelda: Majora's Mask
Composer(s): Koji Kondo, Toru Minegishi
Style: Transcription
Series: Legend of Zelda

AutoScroll: Slow | Medium | Fast
Pirates' Fortress
Legend of Zelda: Majora's Mask
Koji Kondo
Link Strife07
5/13/11

**Standard tuning**

e|----------------------------------------|
B|----5-5-5----3--5--6--8--3-h5--6-5------|
G|-2--------------------------------------|
D|----------------------------------------|
A|----------------------------------------|
E|----------------------------------------|

e|----------------------------------------|
B|----5-5-5----3--5--6----3-h5--6-5-------|
G|-2-------------------5------------------|
D|----------------------------------------|
A|----------------------------------------|
E|----------------------------------------|

e|-------------16--15-h16-15--------------|
B|---18---16------------------------------|
G|----------------------------------------|
D|----------------------------------------|
A|----------------------------------------|
E|----------------------------------------|

e|----------------------------------------|
B|----5-5-5----3--5--6--8--6-h8--6-5------|
G|-2--------------------------------------|
D|----------------------------------------|
A|----------------------------------------|
E|----------------------------------------|

e|----------------------------------------|
B|----5-5-5----3--1--3--5--1-h3--1-0------|
G|-2-----------------------------------0--|
D|----------------------------------------|
A|----------------------------------------|
E|----------------------------------------|

e|----------------------------------------|
B|----5-5-5--------3--8-----3---5~--------|
G|-2--------------------5-----------------|
D|----------------------------------------|
A|----------------------------------------|
E|----------------------------------------|

e|----------------------------------------|
B|---6~-----9~------7~------6~------------|
G|----------------------------------------|
D|----------------------------------------|
A|----------------------------------------|
E|----------------------------------------|

e|-------------16--15-h16-15--------------|
B|---18---16------------------------------|
G|----------------------------------------|
D|----------------------------------------|
A|----------------------------------------|
E|----------------------------------------|


**Repeat whole thing as many times as wanted**

**Enjoy!**

1 comment on Pirates' Fortress

awesome!

WAY TOO COOL THANKS FOR TABING THIS!