Login or Register to remove this ad. | Advertise Here

New Wave Bossa Nova (Legend of Zelda: Majora's Mask) Guitar Tab

Submitted: Mar 04, 2011 by natenmn (Last updated: May 20, 2011)

5
Average: 5 (3 votes)
Download | Listen
Game: Legend of Zelda: Majora's Mask
Composer(s): Koji Kondo, Toru Minegishi
Style: Arrangement, Fingerstyle, Percussion
Series: Legend of Zelda

AutoScroll: Slow | Medium | Fast
       New Wave Bossa Nova - The Legend of Zelda: Majora's Mask
                              Koji Kondo                          
                     (Arranged by Nathan Nordstrom)


Tab: Nathan Nordstrom
3/4/2011                                                          
                                                                 

                                                                                                    
Classical Guitar 1 (Capo 5)


    4/4 145bpm

      ^                                                 
      Q    E  E  E  E  E  E     Q    E  E  E  E  E  E   
E||---2----L--------5--2--0--|-------------------2--0--|
B||---0----L-----------------|----------------1--------|
G||*----------0--0-----------|----------0--0-----------|
D||*-------------------------|-------------------------|
A||---3----x--------------3--|--3----x--------------3--|
E||--------------------------|-------------------------|


  Q    E  E  Q.     E     E  E.  S E  E.  E.  E   
-----------------------|------------------2---5--|
-----------------------|---------0----3----------|
-----------------------|-----2-------------------|
----------4--4---------|-----------4--4----------|
--2----x------------2--|--2-------------------2--|
-----------------------|-------------------------|


  ^                                                 
  Q    E  E  E  E  E  E     Q    E  E  E  E  E  E   
--7----L--------5--2--0--|-------------------2--0--|
--7----L-----------------|----------------1--------|
----------0--0-----------|----------0--0-----------|
-------------------------|-------------------------|
--3----x--------------3--|--3----x--------------3--|
-------------------------|-------------------------|


  Q    E  E  Q.     E     E   E.  S E  E.  E.  E   
-----------------------|-----10---7----5---2---0--|
-----------------------|--------------------------|
-----------------------|--------------------------|
----------4--4---------|------------4--4----------|
--2----x---------------|-----------------------2--|
--------------------7--|--7-----------------------|


  ^                                                 
  Q    E  E  E  E  E  E     Q    E  E  E  E  E  E   
----------------3--------|-------------------------|
--3----L-----------3--1--|----------------0--1--0--|
--0----L-----------------|-------------------------|
----------3--3-----------|----------3--3-----------|
--1----x-----------------|--1----x-----------------|
-------------------------|-------------------------|


                            ^                        ^                     
  Q    E  E  E  E  E  E     Q    E  E  E  Q.         Q    E  E  Q.     E   
-------------------------|------------------------|-----------------------|
----------------------0--|--1----L--------3S------|--0----L---------------|
----------------0--2-----|--0----L----------------|-----------------------|
----------2--2-----------|----------1--1----------|--2----L--0--0---------|
--0----x-----------------|------------------------|-----------------------|
-------------------------|--4----x----------------|--3----x------------3--|


1st Ending-------------   2nd Ending------------

  Q    E  E  Q.     E       E  E  E  H        E                        
------------------------||-----------3--------L--|-------------------||
------------------------||--------0--------------|-------------------||
-----------------------*||-----0-----------------|-------------------||
----------0--0---------*||-----------------------|-------------------||
------------------------||-----------------------|-------------------||
--3----x------------3---||--3--------------------|-------------------||




Duration Legend
---------------
W - whole
H - half
Q - quarter
E - 8th
S - 16th
T - 32nd
X - 64th
. - note dotted
|-n-|  - n-tuplets


Tablature Legend
----------------
L - tied note
x - dead note
g - grace note
(n) - ghost note
> - accentuded note
NH - natural harmonic
AH - artificial harmonic
TH - tapped harmonic
SH - semi harmonic
PH - pitch harmonic
h - hammer on
p - pull off
b - bend
br - bendRelease
pb - preBend
pbr - preBendRelease
brb - bendReleaseBend
\n/ - tremolo bar dip
\n - tremolo bar dive
-/n - tremolo bar Release up
/n\ - tremolo bar inverted dip
/n - tremolo bar return
-\n - tremolo bar Release down
S - shift slide
s - legato slide
/ -  slide into from below or out of upwards
\ -  slide into from above or out of downwards
~ - vibrato
W - wide vibrato
tr - trill
TP - tremolo picking
T - tapping
S - slap
P - pop
< - fade in
^ - brush up
v - brush down