Login or Register to remove this ad. | Advertise Here

Mayor's Meeting (Legend of Zelda: Majora's Mask) Guitar Tab

Submitted: Sep 16, 2011 by EroSennin

3
Average: 3 (1 vote)
Download | Listen
Game: Legend of Zelda: Majora's Mask
Composer(s): Koji Kondo, Toru Minegishi
Style: Arrangement, Fingerstyle
Series: Legend of Zelda

AutoScroll: Slow | Medium | Fast
Mayor's Office
Legend of Zelda: Majora's Mask 
Composed by Koji Kondo
Tabbed by EroSennin (Faris)
15/09/11

*Line unnecessary but makes it sound better
e-------------------------------------------------------------
B----4-4-4----8-8-8----4-4-4-----------4-4-4---8-8-8----------
G--5--------7--------5-------7-0-0---5-------7-------8-5-7-4-5      X2
D*------------5-5-5------------5-5-------------5-5-5----------
F*---2-2-2-------------2-2-2-----------2-2-2------------------
C*-3--------4--------3-------4-------3-------4-------7---5---7

e-----------------------------------------------------------------
B-----------------------------------------------------------------
G--3-------5-------6-------8-------0-------2-------3------4-------  X2
D-----------------------------------------------------------------  
F--0-0-0-0-0-0-0-0-0-0-0-0-0-0-0-0--------------------------------
C----------------------------------0-0-0-0-0-0-0-0-0-0-0-0-0-0-0-0

e-----------------------------------------------------------------
B-----------------------------------------------------------------
G--3-------5-------6-------8-------5---------------4--------------
D----------------------------------5-5-5-5-5-5-5-5-0-0-0-0-0-0-0-0
F--0-0-0-0-0-0-0-0-0-0-0-0-0-0-0-0--------------------------------
C-----------------------------------------------------------------

repeat from top