Login or Register to remove this ad. | Advertise Here

Cremia's Carriage (Legend of Zelda: Majora's Mask) Bass/Guitar Tab

Submitted: Jul 25, 2011 by hslesperance (Last updated: Aug 10, 2012)

5
Average: 5 (1 vote)
Download | Listen
Game: Legend of Zelda: Majora's Mask
Composer(s): Koji Kondo, Toru Minegishi
Style: 2 or more instruments, Transcription
Series: Legend of Zelda

AutoScroll: Slow | Medium | Fast
Cremia's Carriage
The Legend of Zelda: Majora's Mask
Composed by Koji Kondo
Tabbed by hslesperance
7/25/11

Guitars - Standard Tuning
Bass - Drop D Tuning (DADG)




Guitar 1 - Harmonica

  W                     W
|---------------------|---------------------|
|---------------------|---------------------|
|---------------------|---------------------|
|---------------------|---------------------|
|---------------------|---------------------|
|---------------------|---------------------|

    |-3-|                     |-3-|               |-3-|
    Q   E +H.                 Q   E +H            Q   E
||------5-(5)---------------|---------------------------|
||o-7---7-(7)---------------|-7-----------------------5-|
||--7-----------------------|-----7-(7)-----------7---4-|
||--------------------------|-----9-(9)-----------------|
||o-------------------------|---------------------------|
||--------------------------|---------------------------|

  |-3-|
  Q   E +Q.         E E E   W
|-----5-(5)---------7-5---|-----------------------|
|-7---------------------7-|-5---------------------|
|-----7-(7)---------------|-6---------------------|
|-------------------------|-----------------------|
|-------------------------|-----------------------|
|-------------------------|-----------------------|


  E Q.         E Q.        E  Q.          E  Q.
|---5----------7-5------|----10----------12-10------|
|-7-7-------------------|-12------------------------|
|-7------------7--------|-12-------------12-12------|
|----------------7------|---------------------------|
|-----------------------|---------------------------|
|-----------------------|---------------------------|


  E Q.         E Q.        W
|---5-------------------|------------------------||
|-7------------7-5------|-----------------------o||
|-7------------6--------|--7---------------------||
|---7------------7------|-(7)--------------------||
|-----------------------|-----------------------o||
|-----------------------|------------------------||




Guitar 2 - Acoustic Guitar

  E E E   E   E E E E   E E e   E   E E E E
|-----2-----------2---|-----3-----------3---|
|-----3-----------3---|-----3-----------3---|
|---2-----2-----2---2-|---4-----4-----4---4-|
|-0-----------0-------|---------------------|
|---------------------|---------------------|
|---------------------|-3-----------3-------|


    E E    e    E   E E E E   E E    e    E   E E E E
||---------2------------2---|--------3------------3-----|
||o--------3------------3---|--------3------------3-----|
||----2---------2-----2---2-|---4---------4-----4---4---|
||--0---------------0-------|---------------------------|
||o-------------------------|---------------------------|
||--------------------------|-3---------------3---------|


  E E    e    E   E E E E   E E e   E   E E E E
|--------2------------2---|-----0-----------0-----|
|--------3------------3---|-----2-----------2-----|
|---2---------2-----2---2-|---2-----2-----2---2---|
|-0---------------0-------|-----------------------|
|-------------------------|-0-----------0---------|
|-------------------------|-----------------------|


  E E  e   E   E E  e E    E  E  e   E    E  E  e E
|------2------------2---|--------3--------------3---|
|------3------------3---|--------3--------------3---|
|---2------2-----2----2-|-----4------4-------3----3-|
|-0---------------------|---------------------------|
|--------------3--------|--2--------------1---------|
|-----------------------|---------------------------|


  E E  e   E   E E  e E    E  E E   E   E E E E
|------2------------3---|-------2-------2---2----||
|------3------------3---|-------3-------3---3---o||
|---2------2-----2----2-|-----2-----2-----2---2--||
|-----------------------|--0---------------------||
|-0---------------------|-----------------------o||
|--------------0--------|------------------------||




Guitar 3 - Banjo

      |--3--|               |--3--|
  E E E E   E E E E E   E E E E   E E E E E
|-------------5-----5-|-------------7-----7-|
|-----3-----3-3---3-3-|-------8-----8---8-8-|
|---2---2-------2-----|-----7---------7-----|
|---------------------|---9-------9---------|
|---------------------|---------------------|
|---------------------|---------------------|

           |--3---|                  |--3---|
    E E    E  E   E E E E E   E E    E  E   E E E E E
||------------------5-----5-|-----------------7-----7---|
||o--------3------3-3---3-3-|-----------8-----8---8-8---|
||----2-------2-------2-----|--------7----------7-------|
||--------------------------|---9-----------9-----------|
||o-------------------------|---------------------------|
||--------------------------|---------------------------|

         |--3---|               |--3--|
  E E    E  E   E E E E E   E E E E   E E E E E
|-----------------5-----5-|-------------3-----3---|
|--------3------3-3---3-3-|-----2-----2-2---2-2---|
|---2-------2-------2-----|---0---0-------0-------|
|-------------------------|-----------------------|
|-------------------------|-----------------------|
|-------------------------|-----------------------|

       |--3--|                   |--3--|
  E E  E E   E E E  E E    E  E  E E   E  E  E  E E
|--------------5------5-|-----------------7-------7-|
|------3-----3-3----3-3-|----------8------8-------8-|
|---2----2-------2------|--------7--------------7---|
|-----------------------|-----9--------9-----9------|
|-----------------------|---------------------------|
|-----------------------|---------------------------|

       |--3--|                  |--3--|
  E E  E E   E E E  E E    E  E E E   E E E E E
|------------5-3------5-|---------------5--------||
|------3-------3----3---|-------3-----3-3---3---o||
|---2----2-------2------|-----2---2-------2---2--||
|-----------------------|------------------------||
|-----------------------|-----------------------o||
|-----------------------|------------------------||




Bass

  Gtr I
  Q.   E H      Q.   E H
|-------------|-------------|
|-0----0-0----|-------------|
|-------------|-------------|
|-------------|-5----5-5----|


    Q.   E H      Q.   E H      Q.   E H      Q.   E Q  E E
||--------------|-------------|-------------|----------------|
||o-0----0-0----|-------------|-0----0-0----|----------------|
||o-------------|-------------|-------------|-0----0-0--2-4--|
||--------------|-5----5-5----|-------------|----------------|


  Q.   E Q.   E   Q.   E Q.   E   Q.   E Q.   E   Q  Q  H
|---------------|---------------|---------------|-------------||
|-0----0--------|---------------|---------------|-0----------o||
|--------3----3-|-2----2-1----1-|-0----0-0----0-|----0-------o||
|---------------|---------------|---------------|-------0-----||

W - whole
H - half
Q - quarter
E - 8th
S - 16th

+ - note tied to previous
. - note dotted

Uncapitalized letters represent notes that are staccato (1/2 duration)
Irregular groupings are notated above the duration line