Login or Register to remove this ad. | Advertise Here

Clock Town (Legend of Zelda: Majora's Mask) Guitar Tab

Submitted: May 27, 2011 by isa iv

5
Average: 5 (1 vote)
Download | Listen
Game: Legend of Zelda: Majora's Mask
Composer(s): Koji Kondo, Toru Minegishi
Style: Arrangement, Fingerstyle
Series: Legend of Zelda

AutoScroll: Slow | Medium | Fast
Tabbed by isa iv
Piano arrangement by diricos



Guitar
     Q    E  E  E  E     Q.     Q.        Q    E  E  E  E   
E||-------------------|----------------|-------------------|
B||-------3--2--0-----|--0-------------|-------------------|
G||----------------2--|---------0------|--2-------2--0-----|
D||--0----------------|----------------|-------2--------2--|
A||-------------------|----------------|-------------------|
E||-------------------|----------------|-------------------|


  Q    E  Q.        Q    E  E  E  E     Q.     Q.        E  E  E  Q    E   
-----------------|-------------------|----------------|-------------------|
-----------------|-------3--2--0-----|--0-------------|-------------------|
--0----2---------|----------------2--|---------0------|--2--0-----0-------|
----------4------|--0----------------|----------------|--------2-------4--|
-----------------|-------------------|----------------|-------------------|
-----------------|-------------------|----------------|-------------------|


  H        E.  T T      Q    E  E  E  E     Q.     Q    S. T  
-------------------|--4g5----------------|--3----------------|
-------------------|---------3--2--0-----|--0----------------|
-------------------|------------------2--|---------0----L----|
--0--------L---L---|----0----------------|-------------------|
-------------------|---------------------|-------------------|
-------------------|---------------------|-------------------|


    Q    E  E  E  E     Q    E  Q    S. T      Q    E  E  E  S. T  
--0g2----------------|--0-----------------|--4g5------------------|
---------------------|--------------------|---------3--2--0-------|
----2-------2--0-----|--0----2------------|------------------2----|
---------2--------2--|----------4----L----|-----------------------|
---------------------|--------------------|----5------------------|
---------------------|--------------------|-----------------------|


    Q.     Q    S. T      E  E  E  Q    E     H.            
--2g3----------------|--0g2--------0-------|---------------|
----0----------------|---------------------|--3------------|
-----------0----L----|----2--0-----0-------|---------------|
---------------------|----------2-------4--|--0------------|
---------------------|---------------------|---------------|
---------------------|---------------------|---------------|


  Q    E  E  E  E     Q.     Q.        E  E  E  Q    E     Q.     Q.      
-------------------|--0-------------|--3--2--3--2-------|--0-------------|
--3----3--3--2--3--|----------------|----------------3--|----------------|
-------------------|---------2------|-------------------|---------2------|
-------------------|----------------|-------------------|----------------|
-------------------|----------------|-------------------|----------------|
-------------------|----------------|-------------------|----------------|


  Q    E  E  E  E     Q.     Q.        E  E  E  Q    E     H.            
-------------------|--0-------------|--3--2--3--2-------|---------------|
--3----3--3--2--3--|----------------|----------------2--|--3------------|
-------------------|---------2------|-------------------|---------------|
-------------------|----------------|-------------------|---------------|
-------------------|----------------|-------------------|---------------|
-------------------|----------------|-------------------|---------------|


  Q    E  E  E  E     Q.     Q.        E  E  E  Q    E     Q.     Q.      
-------------------|--0-------------|--3--2--3--2-------|--0-------------|
--3----3--3--2--3--|--3-------------|--2-------------3--|--0-------------|
--2----------------|---------2------|-------------------|---------2------|
-------------------|----------------|-------------------|----------------|
-------------------|----------------|-------------------|----------------|
-------------------|----------------|-------------------|----------------|


  Q    E  E  E  E     Q.     Q.        E  E  E  Q    E     H.            
-------------------|--0-------------|--3--2--3--2-------|---------------|
--3----3--3--2--3--|--3-------------|--5--------2----2--|--3------------|
--2----------------|---------2------|-------------------|--7------------|
-------------------|----------------|-------------------|---------------|
-------------------|----------------|-------------------|---------------|
-------------------|----------------|-------------------|---------------|


  v               v                v               v              
  H.              Q    H           H.              Q    H         
---------------|----------------|---------------|----------------|
--0------------|----------------|---------------|----------------|
--0------------|--2-------------|--0------------|----------------|
---------------|--4-------------|--2------------|--4-------------|
--2------------|--0-------------|---------------|--5-------------|
---------------|----------------|--3------------|--2-------------|


  v               ^       v          v               v              
  H.              Q    E  Q    E     H.              Q    H         
---------------|------------------|---------------|----------------|
--0------------|------------------|---------------|----------------|
--0------------|--2-------0-------|---------------|----------------|
---------------|--4-------2-------|--4------------|--2-------------|
--2------------|--0---------------|--5------------|--4-------------|
---------------|----------3-------|--2------------|--0-------------|


  v               v                v               v              
  H.              Q    H           H.              Q    H         
---------------|----------------|---------------|----------------|
--0------------|----------------|--3------------|--2-------------|
--0------------|--2-------------|--4------------|--2-------------|
---------------|--4-------------|--0------------|----------------|
--2------------|--0-------------|---------------|--4-------------|
---------------|----------------|---------------|----------------|


  H.              H.              Q    E  E  E  E     H        Q       
---------------|---------------|----------5--------|--5--------------||
--2------------|--1------------|--0----------------|-----------------||
---------------|---------------|-------2--------2--|----------------*||
---------------|---------------|-------------------|----------------*||
--4------------|--3------------|--2----------------|-----------------||
---------------|---------------|-------------------|-----------------||




Duration Legend
---------------
W - whole
H - half
Q - quarter
E - 8th
S - 16th
T - 32nd
X - 64th
. - note dotted
|-n-|  - n-tuplets


Tablature Legend
----------------
L - tied note
x - dead note
g - grace note
(n) - ghost note
> - accentuded note
NH - natural harmonic
AH - artificial harmonic
TH - tapped harmonic
SH - semi harmonic
PH - pitch harmonic
h - hammer on
p - pull off
b - bend
br - bendRelease
pb - preBend
pbr - preBendRelease
brb - bendReleaseBend
\n/ - tremolo bar dip
\n - tremolo bar dive
-/n - tremolo bar Release up
/n\ - tremolo bar inverted dip
/n - tremolo bar return
-\n - tremolo bar Release down
S - shift slide
s - legato slide
/ -  slide into from below or out of upwards
\ -  slide into from above or out of downwards
~ - vibrato
W - wide vibrato
tr - trill
TP - tremolo picking
T - tapping
S - slap
P - pop
< - fade in
^ - brush up
v - brush down 

1 comment on Clock Town

yay!!

yay!!