Login or Register to remove this ad. | Advertise Here

Clock Town (Legend of Zelda: Majora's Mask) Guitar Tab

Submitted: Mar 09, 2011 by 60NCA10

5
Average: 5 (4 votes)
Download | Listen
Game: Legend of Zelda: Majora's Mask
Composer(s): Koji Kondo, Toru Minegishi
Style: Arrangement, Fingerstyle
Series: Legend of Zelda

Click here for a video example.

AutoScroll: Slow | Medium | Fast




                THE LEGEND OF ZELDA: MAJORA'S MASK
                          "Clock Town"


                   Original song by: Koji Kondo

                  Fingerstyle Arrangement by:
                        Gonçalo Martins
                        October 3rd 2010




Intro:

     H.           H.              H.           H.            
E||----------------------------|----------------------------|
B||----------------------------|----------------------------|
G||----------------------------|----------------------------|
D||--0-------------------------|----------------------------|
A||---------------4------------|--2------------4------------|
E||----------------------------|----------------------------|

  H.           H.              H.           H.            
----------------------------|----------------------------|
----------------------------|----------------------------|
----------------------------|----------------------------|
--0-------------------------|----------------------------|
---------------4------------|--2------------4------------|
----------------------------|----------------------------|



1st Verse (play twice):

    Q    E  E  E  E  Q.     Q.        Q    E  E  E  E  Q    E  Q.      
|----------------------------------|----------------------------------|
|--------3--2--0-----0-------------|----------------------------------|
|*----------------2---------0------|--2-------2--0-----0----2---------|
|*--0------------------------------|-------2--------4----------4------|
|--------------------4-------------|--2----------------4--------------|
|----------------------------------|----------------------------------|

  Q    E  E  E  E  Q.     Q.        E  E  E  Q    E  Q.     Q.        
---------------------------------|----------------------------------||
-------3--2--0-----0-------------|--------------------------x-------||
----------------2---------0------|--2--0-----0--------------x------*||
--0------------------------------|--------4-------4--0------x------*||
-------------------4-------------|--2--------4-------5------x-------||
---------------------------------|----------------------------------||



2nd Verse (play twice):

   Q    E  E  E  E  Q.     Q.        E  E  E  Q    E  Q.     Q.      
--------------------0-------------|--3--2--3--2-------0-------------|
---3----3--3--2--3----------------|----------------3----------------|
*--------------------------2------|--------------------------2------|
*--0------------------------------|---------------------------------|
--------------------4-------------|--2----------------4-------------|
----------------------------------|---------------------------------|


  Q    E  E  E  E  Q.     Q.        E  E  E  Q    E  Q.     Q.        
-------------------0-------------|--3--2--3--2----------------------||
--3----3--3--2--3----------------|----------------2--3------x-------||
--------------------------2------|--------------------------x------*||
--0------------------------------|-------------------0------x------*||
-------------------4-------------|--2--------4--------------x-------||
---------------------------------|----------------------------------||



Bridge:

  H.           Q.     Q.        H.           Q.     Q.      
-----------------------------|-----------------------------|
--0-------------------x------|----------------------x------|
---------------2------x------|--0-------------------x------|
----------------------x------|---------------4------x------|
----------------------x------|----------------------x------|
-----------------------------|-----------------------------|

  H.           Q.     Q.        H.           Q.     Q.      
-----------------------------|-----------------------------|
--0--------------------------|----------------------x------|
---------------2------0------|----------------------x------|
-----------------------------|--4------------2------x------|
-----------------------------|----------------------x------|
-----------------------------|-----------------------------|

  H.           Q.     Q.        H.           Q.     Q.      
-----------------------------|-----------------------------|
--0-------------------x------|--3------------2------x------|
---------------2------x------|----------------------x------|
----------------------x------|----------------------x------|
----------------------x------|----------------------x------|
-----------------------------|-----------------------------|

  H.           H.              Q    E  Q    E  Q.     Q.      
----------------------------|----------5-------5------x------|
--2------------1------------|--0----0-------5---------x------|
----------------------------|-------------------------x------|
----------------------------|-------------------------x------|
----------------------------|--------------------------------|
----------------------------|--------------------------------|



1st Verse:

  Q    E  E  E  E  Q.     Q.        Q    E  E  E  E  Q    E  Q.      
---------------------------------|----------------------------------|
-------3--2--0-----0-------------|----------------------------------|
----------------2---------0------|--2-------2--0-----0----2---------|
--0------------------------------|-------2--------4----------4------|
-------------------4-------------|--2----------------4--------------|
---------------------------------|----------------------------------|

  Q    E  E  E  E  Q.     Q.        E  E  E  Q    E  Q.     Q.       
---------------------------------|---------------------------------||
-------3--2--0-----0-------------|--------------------------x------||
----------------2---------0------|--2--0-----0--------------x------||
--0------------------------------|--------4-------4--0------x------||
-------------------4-------------|--2--------4-------5------x------||
---------------------------------|---------------------------------||




Duration Legend
---------------
H - half
Q - quarter
E - 8th


Tablature Legend
----------------
x - dead note