Login or Register to remove this ad. | Advertise Here

Ballad of the Wind Fish (Legend of Zelda: Majora's Mask) Guitar Tab

Submitted: May 15, 2011 by hslesperance (Last updated: Aug 10, 2012)

0
Download | Listen
Game: Legend of Zelda: Majora's Mask
Composer(s): Koji Kondo, Toru Minegishi
Style: 2 or more instruments, Transcription
Series: Legend of Zelda

AutoScroll: Slow | Medium | Fast
Ballad of the Wind Fish
The Legend of Zelda: Majora's Mask
Composed by Koji Kondo (Made famous by the Indigo-Go's!)
Tabbed by hslesperance
5/15/11

Standard Tuning




Ocarina of Time

                |-3--|      |3-|
   H           +Q.   Q.     Q  H        +H
|-10----------(10)-------|----------------------|
|-------------------10---|-12-10-------(10)-----|
|------------------------|----------------------|
|------------------------|----------------------|
|------------------------|----------------------|
|------------------------|----------------------|

                |-3--|      |3-|
   H           +Q.   Q.     Q  H        +H
|-10----------(10)-------|-----------------------|
|-------------------10---|-12-10-------(10)------|
|------------------------|-----------------------|
|------------------------|-----------------------|
|------------------------|-----------------------|
|------------------------|-----------------------|

                         |--3---|
   H.                   +E   E  E    H            H
|-13-------------------(13)-12-10-|-10-----------13----|
|---------------------------------|--------------------|
|---------------------------------|--------------------|
|---------------------------------|--------------------|
|---------------------------------|--------------------|
|---------------------------------|--------------------|


   W                   +H     H
|-12----------------|-(12)---------*|
|-------------------|--------------*|
|-------------------|--------------*|
|-------------------|--------------*|
|-------------------|--------------*|
|-------------------|--------------*|




Pipes of Awakening

       |-3--|               |--3---|
   Q  +Q    E  +H           Q  Q   W
|--5--(5)----------------|-----7---5------------|
|------------------------|--6-------------------|
|-----------7--(7)-------|----------------------|
|------------------------|----------------------|
|------------------------|----------------------|
|------------------------|----------------------|

       |-3--|               |--3---|
   Q  +Q    E  +H           Q  Q   W
|--5--(5)----------------|-----7---5-------------|
|------------------------|--6--------------------|
|-----------7--(7)-------|-----------------------|
|------------------------|-----------------------|
|------------------------|-----------------------|
|------------------------|-----------------------|

                  |3-|
   Q         Q    Q  H               H            H
|-----------10--------------------|--------------------|
|-10-------------10---------------|--------------------|
|-------------------10------------|--7------------6----|
|---------------------------------|--------------------|
|---------------------------------|--------------------|
|---------------------------------|--------------------|


   W                   +H     H
|-------------------|--------------*|
|-------------------|--------------*|
|--9----------------|--(9)---------*|
|-------------------|--------------*|
|-------------------|--------------*|
|-------------------|--------------*|




Guitar of Waves

       |-3--|                    |-3-|
   Q   E  E E   Q    Q      Q    E E E   Q   Q
|------------------------|----------------------|
|------3-----------------|-------3-0------------|
|---------2--------------|-----------2----------|
|-----------3---0--------|---------------3------|
|------------------------|----------------------|
|------------------------|----------------------|

       |-3--|                    |-3-|
   Q   E  E E   Q    Q      Q    E E E   Q   Q
|------------------------|-----------------------|
|------3-----------------|-------3-0-------------|
|---------2--------------|-----------2-----------|
|-----------3---0--------|---------------3-------|
|------------------------|-----------------------|
|------------------------|-----------------------|

 
   S  S S S  E E  H                  S S S S E E  H
|------------3--------------------|----------0---------|
|---------3-----------------------|--------3-----------|
|-------0-------------------------|------3-------------|
|-----5---------------------------|----2---------------|
|--5------------------------------|--5-----------------|
|---------------------------------|--------------------|


   S S S S E E H        W
|-------------------|--------------*|
|----------5--------|--------------*|
|--------4----------|--------------*|
|------7------------|--------------*|
|----5--------------|--------------*|
|--5----------------|--------------*|
Wrap thumb around neck to cover the 
two bottom strings of the last chord




Drums of Sleep sheet music on PDF if you are interested




Background Strings

Starts on 5th measure at 0:08
  W                 W                 W            +H     H
|-1---------------|-0---------------|-0----------|-(0)---------*|
|-3---------------|-2---------------|-3----------|-(3)---------*|
|-3---------------|-2---------------|-2----------|-(2)---------*|
|-----------------|-----------------|------------|-------------*|
|-----------------|-----------------|------------|-------------*|
|-----------------|-----------------|------------|-------------*|

W - whole
H - half
Q - quarter
E - 8th
S - 16th
+ - note tied to previous
. - note dotted

Irregular groupings are notated above the duration line

3 comments on Ballad of the Wind Fish

Isn't Ballad of the wind fish

Isn't Ballad of the wind fish from Link's awakening?

There are in both games but

They beez in both games buh zound nut'ing alyke

Here's an excellent arrangement of the Link's Awakening version
http://www.youtube.com/watch?v=wdLoEP5ytKc

The actual song only plays the lead, but he compliments a harmony, rhythm, bass, and drums.

how very shakespearean of you

how very shakespearean of you