Login or Register to remove this ad. | Advertise Here

Astral Observatory (Legend of Zelda: Majora's Mask) Guitar Tab

Submitted: Mar 13, 2011 by natenmn

4.666665
Average: 4.7 (6 votes)
Download | Listen
Game: Legend of Zelda: Majora's Mask
Composer(s): Koji Kondo, Toru Minegishi
Style: Arrangement, Fingerstyle
Series: Legend of Zelda

AutoScroll: Slow | Medium | Fast
        Astral Observatory - The Legend of Zelda: Majora's Mask
                              Koji Kondo                          
                     (Arranged by Nathan Nordstrom)


Tab: Nathan Nordstrom
3/13/2011                                                          
                                                                 

                                                                                                    
Classical Guitar 1 (Capo 1)


    4/4 180bpm

                                      ^                    
     E  E  E   E   E  E   E   E       Q    Q    Q    Q     
E||-------------------0h--2h--3--||---4---------0----4----|
B||--------0h--2h--4-------------||---0----0--------------|
G||-----2------------------------||*--1-------------------|
D||------------------------------||*----------------------|
A||------------------------------||------------------2----|
E||------------------------------||---0-------------------|


                         ^                                           
  Q    Q    Q    Q       Q    Q    Q    Q       Q    Q    Q    Q     
----------------------|--4---------0----4----|----------------------|
--0-------------------|--2----2--------------|--2-------------------|
------------1---------|--2-------------------|------------1---------|
-------2---------2----|----------------------|-------2---------2----|
----------------------|--0--------------4----|----------------------|
----------------------|----------------------|----------------------|


  ^                                             ^                    
  Q    Q    Q    Q       Q    Q    Q    Q       Q    Q    Q    Q     
--4---------0----4----|----------------------|--4---------0----2----|
--0----0--------------|--0-------------------|--2----2--------------|
--1-------------------|------------1---------|--1-------------------|
----------------------|-------2---------2----|----------------------|
-----------------2----|----------------------|--0--------------4----|
--0-------------------|----------------------|----------------------|


                         ^                                           
  Q    Q    Q    Q       Q    Q    Q    Q       Q    Q    Q    Q     
----------------------|--4---------0----4----|----------------------|
--2-------------------|--2----0--------------|--2-------------------|
------------1---------|--2-------------------|------------1---------|
-------2---------2----|--0--------------0----|-------4---------4----|
----------------------|----------------------|----------------------|
----------------------|----------------------|----------------------|


  ^                                             ^                    
  Q    Q    Q    Q       Q    Q    Q    Q       Q    Q    Q    Q     
--4---------0----4----|----------------------|--4---------0----2----|
--2----2--------------|--2-------------------|--2----0--------------|
--2-------------------|------------2---------|----------------------|
--1--------------1----|-------4---------4----|--1--------------1----|
----------------------|----------------------|----------------------|
----------------------|----------------------|----------------------|


                         ^                                           
  Q    Q    Q    Q       Q    Q    Q    Q       Q    Q    Q    Q     
----------------------|--0--------------0----|----------------------|
--2-------------------|--2----2----4---------|--2-------------------|
------------1---------|----------------------|------------1---------|
-------4---------4----|----------------------|-------2---------2----|
----------------------|--4--------------4----|----------------------|
----------------------|----------------------|----------------------|


  ^                                             ^                    
  Q    Q    Q    Q       Q    Q    Q    Q       Q    Q    Q    Q     
--2--------------2----|----------------------|--2--------------0----|
--2---------2---------|--2-------------------|------------2---------|
-------3--------------|------------3---------|--3----3--------------|
-----------------4----|-------2---------2----|----------------------|
--1-------------------|----------------------|----------------------|
----------------------|----------------------|--2--------------2----|


                         ^                                           
  Q    Q    Q    Q       Q    Q    Q    Q       Q    Q    Q    Q     
----------------------|--0--------------0----|----------------------|
--2-------------------|------------0---------|--0-------------------|
------------3---------|-------2--------------|------------2---------|
-------4---------4----|--4-------------------|-------2---------2----|
----------------------|--1-------------------|----------------------|
----------------------|-----------------2----|----------------------|


  ^                                                       ^                 
  Q    Q    Q    Q       E  E  E   E   E  E   E   E       W                 
----------------------|-------------------0h--2h--3---||--4----------------|
--4--------------4----|--L-----0h--2h--4--------------||--0----------------|
--4----1----2---------|-----2------------------------*||--1----------------|
----------------------|------------------------------*||-------------------|
--2--------------2----|--L----------------------------||-------------------|
----------------------|-------------------------------||--0----------------|


  W                                      
--L----------------|-------------------||
--L----------------|-------------------||
--L----------------|-------------------||
-------------------|-------------------||
-------------------|-------------------||
--L----------------|-------------------||




Duration Legend
---------------
W - whole
H - half
Q - quarter
E - 8th
S - 16th
T - 32nd
X - 64th
. - note dotted
|-n-|  - n-tuplets


Tablature Legend
----------------
L - tied note
x - dead note
g - grace note
(n) - ghost note
> - accentuded note
NH - natural harmonic
AH - artificial harmonic
TH - tapped harmonic
SH - semi harmonic
PH - pitch harmonic
h - hammer on
p - pull off
b - bend
br - bendRelease
pb - preBend
pbr - preBendRelease
brb - bendReleaseBend
\n/ - tremolo bar dip
\n - tremolo bar dive
-/n - tremolo bar Release up
/n\ - tremolo bar inverted dip
/n - tremolo bar return
-\n - tremolo bar Release down
S - shift slide
s - legato slide
/ -  slide into from below or out of upwards
\ -  slide into from above or out of downwards
~ - vibrato
W - wide vibrato
tr - trill
TP - tremolo picking
T - tapping
S - slap
P - pop
< - fade in
^ - brush up
v - brush down

4 comments on Astral Observatory

nice tune & tab ! Fun & good

5

nice tune & tab ! Fun & good exercice about 4th bar also.

Who gave this a low vote?

5

Who gave this a low vote? Grrrrr.

:U

Ah, I've wanted to play with for a while, thanks a bunch for sharing!

Legendary. Why u no make more

5

Legendary. Why u no make more arrangements?