Login or Register to remove this ad. | Advertise Here

Astral Observatory (Legend of Zelda: Majora's Mask) Guitar Tab

Submitted: Nov 05, 2010 by Aeter

5
Average: 5 (2 votes)
Download | Listen
Game: Legend of Zelda: Majora's Mask
Composer(s): Koji Kondo, Toru Minegishi
Style: 2 or more instruments, Alternate picking, Transcription
Series: Legend of Zelda

AutoScroll: Slow | Medium | Fast
                    Astral Observatory                      


                                                  Koji Kondo
Guitar 1



              Q.     H        E     Q.     H        E   
E||--------|--5------5--------L--|--5------5--------L--|
B||--------|--6------6--------L--|--3------3--------L--|
G||*-------|--5------5--------L--|--3------3--------L--|
D||*-------|---------------------|---------------------|
A||--------|---------------------|---------------------|
E||--------|---------------------|---------------------|


  Q.     H        E     Q.     H        E   
--5------5--------L--|--5------3--------L--|
--6------6--------L--|--3------3--------L--|
--5------5--------L--|--3------3--------L--|
---------------------|---------------------|
---------------------|---------------------|
---------------------|---------------------|


  Q.     H        E     Q.     H        E   
--5------5--------L--|--5------5--------L--|
--3------3--------L--|--3------3--------L--|
--3------3--------L--|--3------3--------L--|
---------------------|---------------------|
---------------------|---------------------|
---------------------|---------------------|


  Q.     H        E     Q.     H        E   
--5------3--------L--|--1------1--------L--|
--5------5--------L--|--3------3--------L--|
--6------6--------L--|--2------2--------L--|
---------------------|---------------------|
---------------------|---------------------|
---------------------|---------------------|


  Q.     H        E     Q.     H        E   
--3------3--------L--|--1------1--------L--|
--3------3--------L--|--3------3--------L--|
--4------4--------L--|--4------4--------L--|
---------------------|---------------------|
---------------------|---------------------|
---------------------|---------------------|


  Q.     H        E     Q.     E     
---------------------|-------------||
--6------6--------L--|--5------5---||
--3------3--------L--|--3------3--*||
--5------5--------L--|--5------5--*||
---------------------|--3------3---||
---------------------|-------------||




Guitar 2



      S S  S S S  S S S  
E||---------------------|
B||-----------------8-9-|
G||*---------7-9-10-----|
D||*--7-8-10------------|
A||---------------------|
E||---------------------|


  S  S  S  S  S  S  S  S S  S  S  S  S  S  S  S  
-------------------------8----------------------|
-------------10---------------------10----------|
-------10----------10---------10----------10----|
----10----10----10----10---10----10----10----10-|
------------------------------------------------|
------------------------------------------------|


  S  S  S  S  S  S  S  S  S  S  S  S  S  S  S  S  
-------------------------10----------------------|
-------------10----------------------10----------|
-------10----------10----------10----------10----|
----12----12----12----12----12----12----12----12-|
-------------------------------------------------|
-------------------------------------------------|


  S  S  S  S  S  S  S  S S  S  S  S  S  S  S  S  
-------------------------8----------------------|
-------------10---------------------10----------|
-------10----------10---------10----------10----|
----10----10----10----10---10----10----10----10-|
------------------------------------------------|
------------------------------------------------|


  S  S  S  S  S  S  S  S  S  S  S  S  S  S  S  S  
-------------------------10----------------------|
-------------10----------------------10----------|
-------10----------10----------10----------10----|
----12----12----12----12----12----12----12----12-|
-------------------------------------------------|
-------------------------------------------------|


  S  S  S  S  S  S  S  S  S  S  S  S  S  S  S  S  
-------------------------10----------------------|
-------------11----------------------11----------|
-------12----------12----------12----------12----|
----12----12----12----12----12----12----12----12-|
-------------------------------------------------|
-------------------------------------------------|


  S  S  S  S  S  S  S  S  S  S  S  S  S  S  S  S  
-------------------------10----------------------|
-------------11----------------------11----------|
-------12----------12----------12----------12----|
----14----14----14----14----14----14----14----14-|
-------------------------------------------------|
-------------------------------------------------|


  S  S  S  S  S  S  S  S S  S  S  S  S  S  S  S  
-------------------------9----------------------|
-------------11---------------------10----------|
-------12----------12---------12----------12----|
----14----14----14----14---14----14----14----14-|
------------------------------------------------|
------------------------------------------------|


  S  S  S  S  S  S  S  S  S  S  S  S  S  S  S  S  
-------------------------10----------------------|
-------------10----------------------10----------|
-------10----------10----------10----------10----|
----12----12----12----12----12----12----12----12-|
-------------------------------------------------|
-------------------------------------------------|


  S  S  S  S  S  S  S  S  S  S  S  S  S  S  S  S  
-------------------------10----------------------|
-------------10----------------------12----------|
-------10----------10----------10----------10----|
----12----12----12----12----12----12----12----12-|
-------------------------------------------------|
-------------------------------------------------|


  S  S  S  S  S  S  S  S  S  S  S  S  S  S  S  S  
-------------------------10----------------------|
-------------12----------------------12----------|
-------10----------10----------10----------10----|
----12----12----12----12----12----12----12----12-|
-------------------------------------------------|
-------------------------------------------------|


  S  S  S  S  S  S  S  S S  S  S  S  S  S  S  S  
-------------------------8----------------------|
-------------11---------------------11----------|
-------10----------10---------10----------10----|
----10----10----10----10---10----10----10----10-|
------------------------------------------------|
------------------------------------------------|


  S  S  S  S  S  S  S  S    
--------------------------||
-------------11-----------||
-------10----------10----*||
----10----10----10----10-*||
--------------------------||
--------------------------||

1 comment on Astral Observatory

Excellent tab, especially

5

Excellent tab, especially since it's not fingerstyle so I can play it.