Login or Register to remove this ad. | Advertise Here

Lost Woods (Rock Version) (Legend of Zelda: A Link to the Past) Guitar Tab

Submitted: Nov 26, 2010 by soundsandstuff

5
Average: 5 (3 votes)
Download | Listen
Game: Legend of Zelda: A Link to the Past
Composer(s): Koji Kondo
Style: Alternate picking, Arrangement
Series: Legend of Zelda

AutoScroll: Slow | Medium | Fast

Zelda 3 - Lost Woods (Heavy Guitars Version)
AKA The Legend of Zelda: A Link To The Past
Platform: SNES/Super Nintendo Entertainment System
Developer: Nintendo
Composed by: Koji Kondo

Guitar Tab Created By: the soundsandstuff channel www.youtube.com/user/soundsandstuff
Completed on 12/23/09


Read: Before playing, tune your guitar to standard E.
      
There are two tabs in this file, one for Guitar 1 and another for Guitar 2 harmonies.



Guitar 1

================================================ A 

Rest for one measure

E|-------------------------------------|
B|-------------------------------------|
G|-------------------------------------|
D|-------------------------------------|
A|-------------------------------------|
E|-------------------------------------|

======================================================== B

E|-----------------------------------------|
B|---------12--12-12-12--------12----------|
G|---9--9--9---9--9--9---10-10-10----------|
D|-----------------------------------------|
A|-----------------------------------------|
E|-----------------------------------------|


E|-----------------------------------------|
B|---------12--12-12-12--------12----------|
G|---9--9--9---9--9--9---10-10-10----------|
D|-----------------------------------------|
A|-----------------------------------------|
E|-----------------------------------------|

================================================================== C

E|---------------------------------------|
B|---12---12-12--------------------------|
G|--------------12---10---9--9-7-9-------|
D|---------------------------------------|
A|---------------------------------------|
E|---------------------------------------|


E|---------------------------------------|
B|---------------------------------------|
G|---14---14-14--------------------------|
D|--------------14---14--12-10-12-10-12--|
A|---------------------------------------|
E|---------------------------------------|


E|-------------------------------------------|
B|-------------------------------------------|
G|---12---12-12---------------9--10---9--10--|
D|--------------10---10---12-----------------|
A|-------------------------------------------|
E|-------------------------------------------|


E|-------------------------------------|
B|--------------------13---------------|
G|--12---------------------------------|
D|-------------------------------------|
A|-------------------------------------|
E|-------------------------------------|

===================================================================== Repeat







Guitar 2

================================================ A 

Rest for one measure

E|-------------------------------------|
B|-------------------------------------|
G|-------------------------------------|
D|-------------------------------------|
A|-------------------------------------|
E|-------------------------------------|

======================================================== B

E|-------------------------------------19-17-19--|
B|-----------------------------------------------|
G|-----------------------------------------------|
D|-----------------------------------------------|
A|-----------------------------------------------|
E|-----------------------------------------------|

E|-------------------------------------19-17-19--|
B|-----------------------------------------------|
G|-----------------------------------------------|
D|-----------------------------------------------|
A|-----------------------------------------------|
E|-----------------------------------------------|

================================================================== C

E|---------------------------------------|
B|---------------------------------------|
G|---------------------------------------|
D|---------------------------------------|
A|---------------------------------------|
E|---------------------------------------|


E|---------------------------------------|
B|---------------------------------------|
G|-------------------12--10-9-10-9-10----|
D|---------------------------------------|
A|---------------------------------------|
E|---------------------------------------|


E|--------------------------------------------|
B|--------------------------------------------|
G|-----------------------------9--10---9--10--|
D|--------------------10---12-----------------|
A|--------------------------------------------|
E|--------------------------------------------|


E|-------------------------------------|
B|-------------------------------------|
G|--9----------------------------------|
D|-------------------------------------|
A|-------------------------------------|
E|-------------------------------------|

===================================================================== Repeat


Notes:

- This tab was made according to how I played it in my youtube video.

Thank you for playing!

2 comments on Lost Woods (Rock Version)

Easy to play an incredible

5

Easy to play an incredible song thanx

Thank you

5

Nice work.. plays great.. thank you for posting this..