Login or Register to remove this ad. | Advertise Here

Kakariko Village (Legend of Zelda: A Link to the Past) Guitar Tab

Submitted: Oct 08, 2011 by diralark

5
Average: 5 (7 votes)
Download | Listen
Game: Legend of Zelda: A Link to the Past
Composer(s): Koji Kondo
Style: Arrangement, Fingerstyle
Series: Legend of Zelda

AutoScroll: Slow | Medium | Fast
         Kakariko Villagefrom Legend of Zelda: A Link to the Past

Music by Koji Kondo >> Tabbed for duet guitar by auriplane  >> solo Guitar

ost : http://www.youtube.com/watch?v=0BUXsqx0gRI

Guitar, Drop-D tuning, tempo 100, let ring
                                                                    V           -]     
     E  E  E  E  E  E     E  E  E  E  E  E     E  E  E  E  E  E     E  E  E  E  E  E   
E||-----------0--------|--------------------|-----------3--------|--------------------|
B||--------1-----1-----|-----------1--------|--------1-----1-----|-----------6-----0--|
G||-----0-----------0--|--------2-----2-----|-----2-----------2--|--------7-----7-----|
D||--------------------|-----2-----------2--|--0-----------------|-----5--------5-----|
A||--3-----------------|--0-----------------|--------------------|--------------------|
D||--------------------|--------------------|--------------------|--5-----------------|


                                                                   V           -]     
    E  E  E  E  E  E     E  E  E  E  E  E     E  E  E  E  E  E     E  E  E  E  E  E   
|------------0--------|--0-----------------|--3--------3--------|--------------------|
|---1-----1-----1-----|-----------1--1-----|--------1-----1-----|-----------6-----0--|
|*-----0--------0--0--|--------2-----2-----|-----2-----------2--|--------7-----7-----|
|*--------------------|-----2-----------2--|--0-----------------|-----5--------5-----|
|---3-----------------|--0-----------------|--------------------|--------------------|
|---------------------|--------------------|--------------------|--5-----------------|


                                                                 V           -]      
  E  E  E  E  E  E     E  E  E  E  E  E     E  E  E  E  E  E     E  E  E  E  E   E   
-----------0--------|--0-----------------|--3--------3--------|---------------------|
--1-----1-----1-----|-----------1--1-----|--------1-----1-----|-----------6--8p--0--|
-----0--------0--0--|--------2-----2-----|-----2-----------2--|--------7-----7------|
--------------------|-----2-----------2--|--0-----------------|-----5---------------|
--3-----------------|--0-----------------|--------------------|---------------------|
--------------------|--------------------|--------------------|--5------------------|


  III -]                                                                             
  E   E  E  E  E  E     E  E  E  E  E  E     E  E  E  E  E  E     E  E  E  E  E  E   
--5------------------|--------------5-----|--3-----------------|--0-----------------|
---------------------|--0-----0-----0-----|--------1-----1-----|--------1-----1-----|
---------5-----5-----|-----------0-----0--|-----0-----0-----0--|--------------------|
------------7-----7--|-----0--------------|--------------------|-----2-----2-----2--|
------3--------------|--------------------|--3-----------------|--0-----------------|
--3------------------|--5-----------------|--------------------|--------------------|


  E  E  E  E  E  E     E  E  E  E  E  E     E  E  E  E  E  E     E  E  E  E  E  E     
--0-----------------|--0-----------------|--------------------|---------------------||
--------1-----1-----|--------0-----3-----|--1-----1-----1-----|--------1-----1------||
-----2-----2-----2--|--------------4-----|-----0-----0-----0--|-----0-----0--0--0--*||
--------------------|-----0-----0-----0--|--------------------|--------------------*||
--------------------|--------------------|--3-----------------|--3------------------||
--0-----------------|--5-----------------|--------------------|---------------------||


  E  E  E  E  E  E     E  E  E  E  E  E     E  E  E  E  E  E     E  E  E  E  E  E   
--------------------|--------------------|--------------------|--------------------|
--1-----1-----1-----|--0-----1-----3-----|--1-----1-----1-----|--------1-----1-----|
-----------2-----2--|-----------2-----2--|-----0-----0-----0--|-----0-----0-----0--|
--------------------|--------------------|--------------------|--2-----------------|
-----3--------------|-----3--------------|--------------------|--------------------|
--3-----------------|--3-----------------|--2-----------------|--2-----------------|


  E  E  E  E  E  E     E  E  E  E  E  E     E  E  E  E  E  E     E  E  E   E  E  E   
--------------------|--------------------|--------------------|---------------------|
--------1-----1-----|--------------------|--------1-----1-----|---------------1-----|
-----2-----2-----2--|--------4-----4-----|-----0-----0-----0--|-----0--3p--0--3--0--|
--3-----------2-----|--3-----------5-----|--2-----------------|---------------------|
--------------------|-----5-----5-----5--|--3-----------------|--1------------------|
--0-----------------|--5-----------------|--------------------|---------------------|


  E  E  E  E  E  E     E  E  E  E  E  E     E  E  E  E  E  E     E  E  E  E  E  E   
--------------------|--------------------|--------------------|--3-----------------|
--1-----1-----1-----|--0-----1-----3-----|--1-----1-----1-----|--------1-----1-----|
-----------2-----2--|-----------2-----2--|-----0-----0--0--0--|-----0-----0-----0--|
--------------------|--------------------|--------------------|--------------------|
-----3--------------|-----3--------------|--------------------|--------------------|
--3-----------------|--3-----------------|--2-----------------|--2-----------------|


  E  E  E  E  E  E     E  E  E  E  E  E     E  E  E  E  E  E     E  E  E  E  E  E   
--1-----------------|--0-----------------|--------------------|-----------0--------|
--------1-----1-----|--------0-----3-----|--1-----1-----1-----|--------1-----1-----|
-----2-----2-----2--|--------------4-----|-----0-----0-----0--|-----0-----------0--|
--------------------|-----0-----0-----0--|--------------------|--------------------|
--------------------|--------------------|--3-----------------|--3-----------------|
--0-----------------|--5-----------------|--------------------|--------------------|


  |-3-|               
  S S S H        E    
--------0-----------||
------1-------------||
----0---------------||
--------------------||
--3-----------------||
--------------------||

Legend
--------------
H - half
E - 8th
S - 16th
p - pull off

5 comments on Kakariko Village

awww

awesome ^_^

thanks :)

thanks :)

best kakariko village tab yet!

5

best kakariko village tab yet!

Yep I always love play it too

I must say all the credit goes to Auriplane, my modest contribution is just a easy mixing from his duet tab :
http://www.gametabs.net/legend-of-zelda-link-to-past/kakariko-village
Finally the solo version keep the awesomeness of the original tabs ^^

yours is still more awesomer

yours is still more awesomer