Login or Register to remove this ad. | Advertise Here

Dark World Dungeon (Legend of Zelda: A Link to the Past) Guitar Tab

Submitted: Dec 04, 2010 by BacardiBreezer (Last updated: May 01, 2011)

5
Average: 5 (1 vote)
Download | No audio :(
Game: Legend of Zelda: A Link to the Past
Composer(s): Koji Kondo
Style: Transcription
Series: Legend of Zelda

AutoScroll: Slow | Medium | Fast
Dark World Dungeon
The Legend of Zelda: A Link to the Past
Composer: Koji Kondo
Tabbed by: BacardiBreezer
12/4/10

Guitar 1 - Lead

e------------------------------|----------------------------------------------|
B------------------------------|----------------------------------------------|
G------------------------------|------------------------------5--4----7--6~---|
D--------6--5------------8-7~--|---------6--5----------8--7-------------------|
A--6--5------------------------|---6--5---------------------------------------|
E---------------6--5~----------|---------------6--5~--------------------------|

e-----------------------|------------------------|--------------------------1--0---|
B-----------------------|------------------------|--------------------3--2---------|
G--------5--4-----------|------------------------|--------------1--0---------------|
D--5--4---------3--2~---|----------8--7----------|--------3--2---------------------|
A-----------------------|---7--6----------6--5~--|--5--4---------------------------|
E-----------------------|------------------------|---------------------------------|

e--------------------------------------------------|
B------------------------------5--4~---------5~----|
G-----------------------6--5-----------------------|
D----------------5--4------------------------------|
A--4--3---6--5-------------------------------------|
E--------------------------------------------------|


Guitar 2 - Rhythm

e--7-7-7-7-7-7-7-7-7-7-7-7-7-7-7-7--|--6-6-6-6-6-6-6-6-6-6-6-6-6-6-6-6-|
B-----------------------------------|----------------------------------|
G-----------------------------------|----------------------------------|
D-----------------------------------|----------------------------------|
A-----------------------------------|----------------------------------|
E-----------------------------------|----------------------------------|

e--10-10-10-10-10-10-10-10-10-10-10-10-10-10-10-10--|--9-9-9-9-9-9-9-9-9-9-9-9-9-9-9-9--|
B---------------------------------------------------|-----------------------------------|
G---------------------------------------------------|-----------------------------------|
D---------------------------------------------------|-----------------------------------|
A---------------------------------------------------|-----------------------------------|
E---------------------------------------------------|-----------------------------------|

e--7-7-7-7-7-7-7-7-7-7-7-7-7-7-7-7--|--6-6-6-6-6-6-6-6-6-6-6-6-6-6-6-6-|
B-----------------------------------|----------------------------------|
G-----------------------------------|----------------------------------|
D-----------------------------------|----------------------------------|
A-----------------------------------|----------------------------------|
E-----------------------------------|----------------------------------|

e--10-10-10-10-10-10-10-10-10-10-10-10-10-10-10-10--|--9-9-9-9-9-9-9-9-9-9-9-9-9-9-9-9--|
B---------------------------------------------------|-----------------------------------|
G---------------------------------------------------|-----------------------------------|
D---------------------------------------------------|-----------------------------------|
A---------------------------------------------------|-----------------------------------|
E---------------------------------------------------|-----------------------------------|

e--7-7-7-7-7-7-7-7-7-7-7-7-7-7-7-7--|--6-6-6-6-6-6-6-6-6-6-6-6-6-6-6-6-|
B-----------------------------------|----------------------------------|
G-----------------------------------|----------------------------------|
D-----------------------------------|----------------------------------|
A-----------------------------------|----------------------------------|
E-----------------------------------|----------------------------------|

e--10-10-10-10-10-10-10-10-10-10-10-10-10-10-10-10--|--9-9-9-9-9-9-9---|
B---------------------------------------------------|------------------|
G---------------------------------------------------|------------------|
D---------------------------------------------------|------------------|
A---------------------------------------------------|------------------|
E---------------------------------------------------|------------------|

e------------------------------11--|-----------------------------------------------13-13-13-13-13--|
B--14-14-14-14-14-14-14-14-14------|--16-16-16-16-16-16-16-16-16-16-16-16-16-16-16-----------------|
G----------------------------------|---------------------------------------------------------------|
D----------------------------------|---------------------------------------------------------------|
A----------------------------------|---------------------------------------------------------------|
E----------------------------------|---------------------------------------------------------------|

e-----------------------------------|-----------------------------------------------------|
B--18-18-18-18-18-18-18-18-18-18-18-|--16-16-16-16-16-16-16-16-16-16-16-16-16-16-16-16----|
G-----------------------------------|-----------------------------------------------------|
D-----------------------------------|-----------------------------------------------------|
A-----------------------------------|-----------------------------------------------------|
E-----------------------------------|-----------------------------------------------------|

e--------------------------------------------------|---------------------------------------------------|
B--15-15-15-15-15-15-15-15-15-15-15-15-15-15-15-15-|--14-14-14-14-14-14-14-14-14-14-14-14-14-14-14-14--|
G--------------------------------------------------|---------------------------------------------------|
D--------------------------------------------------|---------------------------------------------------|
A--------------------------------------------------|---------------------------------------------------|
E--------------------------------------------------|---------------------------------------------------|

e--------------------------------------------------|---------------------------------------------------|
B--13-13-13-13-13-13-13-13-13-13-13-13-13-13-13-13-|--12-12-12-12-12-12-12-12-12-12-12-12-12-12-12-12--|
G--------------------------------------------------|---------------------------------------------------|
D--------------------------------------------------|---------------------------------------------------|
A--------------------------------------------------|---------------------------------------------------|
E--------------------------------------------------|---------------------------------------------------|

e--------------------------------------------------|---------------------------------------------------|
B--12-12-12-12-12-12-12-12-12-12-12-12-12-12-12-12-|--12-12-12-12-12-12-12-12-12-12-12-12-12-12-12-12--|
G--------------------------------------------------|---------------------------------------------------|
D--------------------------------------------------|---------------------------------------------------|
A--------------------------------------------------|---------------------------------------------------|
E--------------------------------------------------|---------------------------------------------------|

e--------------------------------------------------|---------------------------------------------------|
B--12-12-12-12-12-12-12-12-12-12-12-12-12-12-12-12-|--11-11-11-11-11-11-11-11-11-11-11-11-11-11-11-11--|
G--------------------------------------------------|---------------------------------------------------|
D--------------------------------------------------|---------------------------------------------------|
A--------------------------------------------------|---------------------------------------------------|
E--------------------------------------------------|---------------------------------------------------|

e--------------------------------------------------|---------------------------------------------------|
B--11-11-11-11-11-11-11-11-11-11-11-11-11-11-11-11-|--11-11-11-11-11-11-11-11-11-11-11-11-11-11-11-11--|
G--------------------------------------------------|---------------------------------------------------|
D--------------------------------------------------|---------------------------------------------------|
A--------------------------------------------------|---------------------------------------------------|
E--------------------------------------------------|---------------------------------------------------|

e--------------------------------------------------|---------------------------------------------------|
B--11-11-11-11-11-11-11-11-11-11-11-11-11-11-11-11-|--12-12-12-12-12-12-12-12-12-12-12-12-12-12-12-12--|
G--------------------------------------------------|---------------------------------------------------|
D--------------------------------------------------|---------------------------------------------------|
A--------------------------------------------------|---------------------------------------------------|
E--------------------------------------------------|---------------------------------------------------|

e--------------------------------------------------|
B--11-11-11-11-11-11-11-11-11-11-11-11-11-11-11-11-|
G--------------------------------------------------|
D--------------------------------------------------|
A--------------------------------------------------|
E--------------------------------------------------|