Login or Register to remove this ad. | Advertise Here

Zelda is Rescued Fanfare (Legend of Zelda) Bass/Guitar Tab

Submitted: Aug 12, 2010 by hslesperance (Last updated: Feb 20, 2011)

0
Download | Listen
Game: Legend of Zelda
Composer(s): Koji Kondo
Style: Fingerstyle, Transcription
Series: Legend of Zelda

AutoScroll: Slow | Medium | Fast
Zelda is Rescued Fanfare
The Legend of Zelda
Composed by Koji Kondo
Tabbed by hslesperance
8/16/08

Tempo= 150

Guitar 1 - Standard
Bass - Drop C

e------------------------------------------------------------------------
B---1-------------1-1-1-----3-1-------------1-1-1-----3-1----------------
G-----------------------3-0-----------------------3-0---0---------------- Guitar 1
D---2-------------2-2-2-------2-------------2-2-2------------------------
A------------------------------------------------------------3-3-3-3-3---
E------------------------------------------------------------------------


G------------------------------------------------------------------------ 
D------------------------------------------------------------------------ Bass
A-----------------------5-------------------------5-----3----------------
C---4-0-4-7-4-7-10-7-10-------4-0-4-7-4-7-10-7-10------------0-----0-----