Login or Register to remove this ad. | Advertise Here

Ending (Legend of Zelda) Guitar Tab

Submitted: Jun 19, 2009 by auriplane (Last updated: Feb 04, 2010)

4.857145
Average: 4.9 (7 votes)
Download | Listen
Game: Legend of Zelda
Composer(s): Koji Kondo
Style: Arrangement, Fingerstyle
Series: Legend of Zelda

AutoScroll: Slow | Medium | Fast
               The Legend of Zelda - Ending (Acoustic Guitar Arrangement)
                                   Song by Koji Kondo

                   Arranged & tabbed by auriplane (crystal@panix.com)

I started this arrangement by taking this tab, which is by toneDefTabber:

    http://www.gametabs.net/legend-of-zelda/ending

And putting a capo on 5.  Then I decided it would make a good arrangement, 
and it took on a bit of a life of its own!  I'm not entirely happy with my
arrangement, but I think it's okay ^-^  Thanks, toneDefTabber!  This tab
would not exist without you.

In this song, there are eighths, and sixteenths.  The sixteenths have a
"triplet feel", meaning off-beat sixteenths are a little bit late (like
triplets with the middle note missing).  Just listen to the song to hear 
what I mean.

I made a GP5 of this one too, with Tuxguitar.  I hope it works well!

D-G-D-G-B-e tuning, capo on 5.

    Part A

   E    E    E    E    E    E    E    E     E    E    E    E    E    E    E    E
E |------------------------------2---------|0--------------0------------------------|
B |3--------------0------------------------|----------0---------3--------------0----|
G |----------0---------3-------------------|-----0-------------------0----2---------|
D |-----0-------------------0---------4----|----------------------------------------|
G |----------------------------------------|----------------------------------------|
D |----------------------------------------|----------------------------------------|

   E    E    E    E    E    E    E    E     E    E    E    E    E    E    E    E
E |0--------------0------------------------|----------------------------------------|
B |----------1---------4--------------1----|0--------------0------------------------|
G |-----0-------------------0----2---------|----------0---------2--------------2----|
D |----------------------------------------|-----0-------------------2----4---------|
G |----------------------------------------|----------------------------------------|
D |----------------------------------------|-------------------------0----2----4----|

   E    E    E    E    E    E    E    E     E    E    E    E    E    E    E    E
E |------------------------------2---------|0--------------0------------------------|
B |3--------------0------------------------|----------0---------3--------------0----|
G |----------0---------3-------------------|-----0-------------------0----2---------|
D |-----0---------0---------0---------4----|-----0---------0------------------------|
G |0---------------------------------------|0-------------------0----0----2----4----|
D |----------0---------4---------0---------|----------0-----------------------------|

   E    E    E    E    E    E    E    E     E    E    E    E    E    E    E    E
E |0--------------0------------------------|----------------------------------------|
B |----------1---------4--------------1----|0--------------0------------------------|
G |-----0---------0---------0----2----0----|----------0---------2--------------2----|
D |----------------------------------------|-----0---------0---------2----4---------|
G |5---------0---------5---------0---------|4---------------------------------------|
D |----------------------------------------|----------0---------4----0----2----4----|

     Part B

   E    E    E    E    E    E    E    E     E    E    E    E    E    E    E    E
E |------------------------------2---------|0---------------------------------------|
B |3--------------0------------------------|0-------------------3-------------------|
G |4--------------0----3---------3---------|--------------------4-------------------|
D |-----0---------0----4----0---------0----|-----0---------0------------------------|
G |0---------------------------------------|0-------------------0----0----2----4----|
D |----------0---------4---------0---------|----------0-----------------------------|

   E    E    E    E    E    E    E    E     E    E    E    E    E    E    E    E
E |0--------------2----5---------3---------|----------------------------------------|
B |---------------1--------------1---------|3--------------0------------------------|
G |5----0---------0----5----0---------0----|0----0---------0----2-------------------|
D |----------------------------------------|---------------0----4-------------------|
G |5---------0---------5---------0---------|4---------------------------------------|
D |----------------------------------------|----------0---------4----0----2----4----|

   E    E    S  S E    E    E    S  S S  S  E    E    S  S E    E    E    E    E
E |--------------------------------------2-|0---------------------------------------|
B |3------------0---------------------3----|0------------0------3-------------------|
G |4------------0------3------------3-3--3-|-------------0------4-------------------|
D |-----0---------0----4----0-------4-0----|-----0---------0------------------------|
G |0---------------------------------------|0-------------------0----0----2----4----|
D |----------0---------4---------0---------|----------0-----------------------------|

   E    E    S  S E    E    E    E    E     E    E    S  S E    E    E    E    E
E |0------------2------5----3---------0----|----------------------------------------|
B |-------------------------0--------------|3------------0--------------------------|
G |0----0-------2------5----0---------0----|-----0--------------2-------------------|
D |---------------5------------------------|4--------------0------------------------|
G |5---------0---------5---------0---------|4-------------------5-------------------|
D |----------------------------------------|----------0---------4----0----2----4----|

    Part C

   E    E    S  S E    E    E    S  S S  S  E    E    S  S E    E    E    E    E
E |--------------------------------------2-|0---------------------------------------|
B |3------------0---------------------3----|0------------0------3-------------------|
G |4------------0------3------------3-3--3-|-------------0------4-------------------|
D |-----0---------0----4----0-------4-0----|-----0---------0------------------------|
G |0---------------------------------------|0-------------------0----0----2----4----|
D |----------0---------4---------0---------|----------0-----------------------------|

   E    E    S  S E    E    E    E    E     E    E    E    E    E    E    E    E
E |0------------2------5----3---------5----|7-----------------------------7----7----|
B |-------------------------0--------------|4-----------------------------4----4----|
G |0----0-------2------5----0---------5----|-----4---------4---------4---------4----|
D |---------------5-------------------5----|----------4-------------------4---------|
G |5---------0---------5---------0---------|4-------------------4-------------------|
D |----------------------------------------|----------------------------------------|

   E    E    E    E    E    E    E    E     E    E    E    E    E    E    E    E
E |5---------------------------------------|--------------------0-------------------|
B |----------8-------------------7----5----|3--------------0--------------0---------|
G |5---------5-------------------5----5----|0-------------------1-------------------|
D |-----5---------5---------5--------------|-----0---------0--------------0---------|
G |5-------------------5---------4----2----|0-------------------1-------------------|
D |----------5-----------------------------|----------0--------------0----2----0----|

   E    E    E    E    E    E    E    E     E    S  S S  S S  S E    E    E    E
E |----------------------------------------|----------------------------------------|
B |-----0----1----2----3-------------------|0----0--0-L--1-3--1-0-------------------|
G |2-----------------------------2---------|0---------------------------------------|
D |2----0----2----3----4---------0---------|----------------------------------------|
G |2----4----5----6----7-------------------|0----0--0-L--2-4--2-0-------------------|
D |-------------------------0----2----4----|-------------------------0----2----4----|

2 comments on Ending

niceee tab, im enjoying this

niceee tab, im enjoying this one :)
on the GP file, it sounds nicer if its set to nylon guitar, just my opinion

Awesomeness

5

I didnt think my tab would have any impact. So imagine my surprise when i heard demigorgon playing your version on nylon guitar and then realizing I had a part in it. Im so glad you came across it because you gave it a life of its own. Awesome! Great job.. really