Login or Register to remove this ad. | Advertise Here

Ending (Legend of Zelda) Guitar Tab

Submitted: Jun 18, 2009 by toneDefTabber (Last updated: Jun 18, 2009)

5
Average: 5 (1 vote)
Download | Listen
Game: Legend of Zelda
Composer(s): Koji Kondo
Style: Transcription
Series: Legend of Zelda

AutoScroll: Slow | Medium | Fast
Ending v2
The Legend of Zelda 
Composed by the legendary Koji Kondo
Tabbed by toneDefTabber
6/17/09

I find it easyer to play it in this position with my elfish hands and it also
allows the chords to resonate a bit more. Njoy! 

E---3-----------------7-----5--------5--3--------0---------------------------|
B------------5--4-----------------5-----------3------------------------------|
G---------5--------------4-----5-----------5---------------------------------|
D------5-----------5---------------------------------------------------------|
A----------------------------------------------------------------------------|
E----------------------------------------------------------------------------|
									     | 3x
E---5--------5--4------------------------------------------------------------|
B---------6--------------6--5--------5--3-----0--3---------------------------|
G------5-----------5--7-----------5--------2---------------------------------|
D------------------------------5---------------------------------------------|
A----------------------------------------------------------------------------|
E----------------------------------------------------------------------------|


Or an octave higher for the ladies!


E---15-----------------19-----17--------17--15--------12---------------------|
B------------17--16-----------------17-----------15--------------------------|
G---------17--------------16-----17-----------17-----------------------------|
D------17-----------17-------------------------------------------------------|
A----------------------------------------------------------------------------|
E----------------------------------------------------------------------------|
									     | 3x
E---17--------17--16---------------------------------------------------------|
B---------18--------------18--17--------17--15-----12--15--------------------|
G------17-----------17--19-----------17--------14----------------------------|
D------------------------------17--------------------------------------------|
A----------------------------------------------------------------------------|
E----------------------------------------------------------------------------|