Login or Register to remove this ad. | Advertise Here

Ballad of Twilight (Legend of Zelda: Twilight Princess) Guitar Tab

Submitted: Jun 25, 2010 by GuitarGuy

5
Average: 5 (3 votes)
Download | Listen
Game: Legend of Zelda: Twilight Princess
Composer(s): Koji Kondo, Asuka Ohta, Toru Minegishi
Style: Arrangement, Fingerstyle
Series: Legend of Zelda

AutoScroll: Slow | Medium | Fast
BALLAD OF TWILIGHT






 
Arranged by Romyl Lopez
 

Gtr I (D# A D G B E) 


   Q=75
  4/4
   Gtr I
   E E E E E E E E   E E E E E E E S S   E E E E E E E E   E E E E E E E E
*|-----------------|-1-----------------|-----------------|------------------|
*|-------------3---|-----3-------3-1---|-----------------|------------------|
*|-3-------5-------|---2---2---2-----3-|-2---------------|------------------|
*|-----5---------5-|-0-------0---------|-----3-------3---|-3---3-------3----|
*|---5---5---5-----|-------------------|---3---3---3---3-|---3---3---3---3--|
*|-4---------------|-------------------|-2-------2-------|-2-------2--------|
   W                 W                   W                 W


   E E E E E E E E   E E E E E E E E   E E E E E E E S S    E E E E H
||-----------------|-1-------------5-|-5-------------3-5-|--6-------6-|
||-------------3---|-----3-------3---|-----6-------6-----|------8---8-|
||-3-------5-------|---2---2---2-----|---5---5---5-------|----7---7-7-|
||-----5---------5-|-0-------0-------|-3-------3---------|--5-------5-|
||---5---5---5-----|-----------------|-------------------|------------|
||-4---------------|-----------------|-------------------|------------|
   W                 W                 W                    H       H


  4/4
   E E E E E S S Q   E E E E E S S Q   S S E +H.
||-----------------|---2-1-----------|--------------*|
||---4-3-----------|-------2-1-----1-|--------------*|
||-0-----3-2-0---2-|-3---------3-1---|-3-1-3-(3)----*|
||-------------3---|-----------------|--------------*|
||-----------------|-----------------|-----1--------*|
||-0-------2-----2-|-3-------5-----5-|--------------*|
   H       Q     Q   H       Q     Q

1 comment on Ballad of Twilight

THANKS!!

THANKS!!