Login or Register to remove this ad. | Advertise Here

Windmill Hut (Legend of Zelda: Ocarina of Time) Guitar Tab

Submitted: Aug 10, 2009 by natenmn (Last updated: Jul 01, 2011)

4.809525
Average: 4.8 (21 votes)
Download | Listen
Game: Legend of Zelda: Ocarina of Time
Composer(s): Koji Kondo
Style: Arrangement, Fingerstyle, Natural harmonics, Transcription
Series: Legend of Zelda

AutoScroll: Slow | Medium | Fast
          Windmill Hut - The Legend of Zelda: Ocarina of Time
                            Koji Kondo 
                       (Arranged by vicio89)


Tab: Nathan Nordstrom
8/10/2009                                                       


                                                                      
Classical Guitar 1 (Capo 3)


   3/4 100bpm

     E  E  E  S S E  E     E  E  E  S S E  E     E  E  E  S S E  E   
E||---------------------|---------------------|---------------------|
B||-----0--0------2-----|-----3--3------2-----|-----0--0------2-----|
G||-----0--0------2-----|-----2--2------2-----|-----0--0------2-----|
D||-------------0----0--|-------------0----0--|-------------0----0--|
A||---------------------|---------------------|---------------------|
E||--0--------2---------|--3--------2---------|--0--------2---------|


  E  E  E  S S E  E     S S E  E  S S E  E     E  S S S S S S E  S S  
---------------------|------0---------0-----|--2----3-2-3-2----------|
-----3--3------2-----|----------------------|---------------3-0------|
-----2--2------2-----|----0---------0-------|----------------------0-|
-------------0----0--|--2---------2---------|-----0--------------0---|
---------------------|----------------------|------------------------|
--3--------2---------|--0------0--2------0--|--3----3----------------|


  E  E  S S E  S S E     E  E  S S E  E  E     S S E  E  S S E  E   
----------------------|---------------------|------0---------0-----|
--0---------0------0--|--0------------------|----------------------|
--------0-2-----------|--------0-2----------|----0---------0-------|
-----2---------0-0----|-----2------4-----4--|--2---------2---------|
--3-------------------|--3---------2--2-----|----------------------|
------------3---------|---------------------|--0------0--2------0--|


  E  S S S S S S E  S S    E  E  S S E  E  E     E  E  E  S S E  E   
--2----3-2-3-2----------|---------------------|---------------------|
---------------3-0------|--0---------0-----0--|-----0--0------2-----|
----------------------0-|--------0-2----------|-----0--0------2-----|
-----0--------------0---|-----2------------1--|--2----------0----0--|
------------------------|--3---------2--2--2--|--2------------------|
--3----3----------------|---------------------|--0--------2---------|


  E  E  E  S S E  E     E  E  E  S S E  E     E  E  E  S S E  E   
---------------------|---------------------|---------------------|
-----3--3------2-----|-----0--0------2-----|-----3--3------2-----|
-----2--2------2-----|-----0--0------2-----|-----2--2------2-----|
-------------0----0--|-------------0----0--|-------------0----0--|
---------------------|---------------------|---------------------|
--3--------2---------|--0--------2---------|--3--------2---------|


  S S E  E  S S E  E     E  S S S S S S E  S S    E  E  S S E  S S E   
------0---------0-----|--2----3-2-3-2----------|----------------------|
----------------------|---------------3-0------|--0---------0---------|
----0---------0-------|----------------------0-|--------0-2--------0--|
--2---------2---------|-----0--------------0---|-----2-----------0----|
----------------------|------------------------|--3------------2------|
--0------0--2------0--|--3----3----------------|------------3---------|


  E  S S S S E  E  E     S S E  E  S S E  E     E  S S S S S S E  S S  
----------------------|------0---------0-----|--2----3-2-3-2----------|
--0-------------------|----------------------|---------------3-0------|
---------0-2----------|----0---------0-------|----------------------0-|
-----2-------4-----4--|--2---------2---------|-----0--------------0---|
--3----3-----2--2-----|----------------------|------------------------|
----------------------|--0------0--2------0--|--3----3----------------|


                       Slow Tempo-----------------------------------

                        |--3--|  |--3--|  |---3--|                   
  E  E  S S E  E  E     E  E  E  E  E  E  E  E   E     H.            
---------------------|-----------------0--2--3s--7--|--7------------|
--0---------0-----0--|--------------0---------------|---------------|
--------0-2----------|-----------0------------------|---------------|
-----2------------1--|--------2---------------------|---------------|
--3---------2--2--2--|-----2------------------------|---------------|
---------------------|--0---------------------------|---------------|


     ^              
     H.             
--<>12------------||
--<>12------------||
--<>12------------||
------------------||
------------------||
------------------||




Duration Legend
---------------
W - whole
H - half
Q - quarter
E - 8th
S - 16th
T - 32nd
X - 64th
. - note dotted
|-n-|  - n-tuplets


Tablature Legend
----------------
L - tied note
x - dead note
g - grace note
(n) - ghost note
> - accentuded note
NH - natural harmonic
AH - artificial harmonic
TH - tapped harmonic
SH - semi harmonic
PH - pitch harmonic
h - hammer on
p - pull off
b - bend
br - bendRelease
pb - preBend
pbr - preBendRelease
brb - bendReleaseBend
\n/ - tremolo bar dip
\n - tremolo bar dive
-/n - tremolo bar Release up
/n\ - tremolo bar inverted dip
/n - tremolo bar return
-\n - tremolo bar Release down
S - shift slide
s - legato slide
/ -  slide into from below or out of upwards
\ -  slide into from above or out of downwards
~ - vibrato
W - wide vibrato
tr - trill
TP - tremolo picking
T - tapping
S - slap
P - pop
< - fade in
^ - brush up
v - brush down

18 comments on Windmill Hut

awesome

5

I love this guy's tabs. Thanks for doing this.

This is wonderful. I love it.

5

This is wonderful. I love it.

nice !

5

great music ! i love it, good job !

Yes, man, yes...

5

Yes, man, yes...

Great tab should change the

5

Great tab should change the "click here for video example" to maikois video since the original link no longer works.

I'm going to preface my reply

I'm going to preface my reply by saying that I love Maikoi's video and that she is a very skilled guitarist. Anyone that has not seen her video should take a look:

http://www.youtube.com/watch?v=Xql85WejYuc

However, unless vicio himself states otherwise, I personally feel that adding a different video as the video example would be insulting to him as I would be representing his arrangement with something other than his own video. I think this would be akin to making Salem's recording of Birth of A God the video example for Kabuki's arrangement without asking Kabuki what he thinks. You or I may think that Salem's recording is good, but that doesn't mean that it is Kabuki's arrangement reincarnated.

Anyways, I'll take down the dead link for the video example. If anyone finds vicio's video floating around the interwebz somewhere, p[lease let me know and I'll add it back in.

Help with fingering for this tab!!

5

First off excellent tab, butut could anyone help by giving me a recommended fingering for tbis tab? The way I'm playing it looks much different form the way Maikoi playes it. I REALLY want to learn this song well, and so far am having a hard time playing it.so any help would be greatly appreciated

Thanks, max

I've quickly made a gp5 and

I've quickly made a gp5 and pdf that include the way that I have played this since I first transcribed Vicio's (the original arranger) video. Here is the zip containing both files:

Windmill Hut Fingerings

Note that multiple measures that are the same only have the fingerings displayed for the first one.

Wow that was fast! Thanks

5

Wow that was fast! Thanks

E||---------------------| B||

E||---------------------|
B||-----3--3------2-----|
G||-----4--4------2-----|
D||-------------0----0--|
A||---------------------|
E||--3--------2---------|
this sounds better
and this
--2----3-2-3-2----------|
---------------3-0------|
------------------------|
-----0------------------|
------------------------|
--3----------2----------|

IMO

This tab is a transcription

This tab is a transcription of Vicio89's Windmill Hut arrangement. The way it is in the tab is the way that he played it.

Also, after trying them out, I disagree with either of your alternatives sounding better.

IMO = in my opinion if you

IMO = in my opinion
if you disagree, that's your problem

I wasn't berating your

I wasn't berating your opinion, if you mistook what I said. I was simply stating the reason why the tab is the way it is and was giving my own opinion of the subject.

I am open to implementing corrections and suggestions if I feel that they improve the tab, and have done this in the past. Conversely, if I disagree with something, I won't change the tab. I also feel it is better to acknowledge whether or not I will change a tab based on a suggestion, and that is what I effectively did with you.

I never asked anyone to

I never asked anyone to change anything, i just posted what I play, the first one because it is easier to play and IMO sounds better, and the second one, I just changed the position of one bass note because it sounds more natural, and otherwise sounds bass-empty

http://goo.gl/doodle/GpPky si

http://goo.gl/doodle/GpPky
since you're awesome anyways

OH GOD i'm delighted by this

OH GOD i'm delighted by this link

glad you liked it :D i made

glad you liked it :D
i made it myself btw

Really hypnotic

Such a cool tab, very hypnotic... I've had a lot of fun this morning playing it over and over as a continuous loop, trying different improvisations each time. =) My favorite tab for doing that since the Blue Fields tabs. Coool.