Login or Register to remove this ad. | Advertise Here

Saria's Song (Legend of Zelda: Ocarina of Time) Guitar Tab

Submitted: Apr 12, 2010 by diralark

5
Average: 5 (2 votes)
Download | Listen
Game: Legend of Zelda: Ocarina of Time
Composer(s): Koji Kondo
Style: Arrangement, Fingerstyle, Transcription
Series: Legend of Zelda

AutoScroll: Slow | Medium | Fast
Saria's Song -  Legend of Zelda : Ocarina of Time                 

Music by Koji Kondo >> piano arrang. by Kimberly Boman  >> tab by Diralark

Note : check *.pdf or *.gp5 file to see staccato notation wich doesnt appear here

Std tuning Guitar, tempo 120

      E  E  E  E  E  E  E  E     E  E  E  E  E  E  E  E   
E||------0--2--------0--2-----|-----0--2--7--5-----2--3--|
B||---1-----------1-----------|--1-----------------------|
G||*-----0--0--0-----0--0--0--|-----0--0--0-----0--0--0--|
D||*-----2--2--2-----2--2--2--|-----2--2--------2--2--2--|
A||---3-----------3-----------|--3-----------3-----------|
E||---------------------------|--------------------------|


  E  E  E  E  E  E  E  E     E  E  E  E  E  E  E  E   
--2-----------------------|--------------------------|
-----3--0-----------------|--0--3--0-----------------|
-----0--0--0-----0--0--2--|-----0--0--0-----0--0--0--|
-----0--0--0-----0--0--0--|-----0--0--0-----0--0--0--|
--------------------------|--------------------------|
--3-----------3-----------|--3-----------3-----------|


  E  E  E  E  E  E  E  E     E  E  E  E  E  E  E  E   
-----0--2--------0--2-----|-----0--2--7--5-----2--3--|
--1-----------1-----------|--1-----------------------|
-----0--0--0-----0--0--0--|-----0--0--0-----0--0--0--|
-----2--2--2-----2--2--2--|-----2--2--------2--2-----|
--3-----------3-----------|--3-----------3-----------|
--------------------------|--------------------------|


  E  E  E  E  E  E   E   E     E  E  E  E  S S  S  S  E  E   
--7----------------------2--|-------------------------------|
-----7--3-----------(3)-----|--3-----0-------1p-0h-1p-0-----|
-----0--0--0-----0---0---0--|-----2--0--0-------------0--0--|
-----0--0--0-----0---0---0--|-----0--0--0-------------0--0--|
----------------------------|-------------------------------|
--3-----------3-------------|--3-----------3----------------|


  E  E  E  E  E  E  E  E     E  E  E  E  E  E  E  E   
-----------------0--2-----|--3--2--------------------|
-----0--1-----3--1-----1--|--------0-----------------|
--2-----------------------|-----0-----0--------------|
-----2-----2--0-----0-----|-----0-----0-----2-----2--|
--0--3--0--3--------------|-----------------2-----2--|
--------------------------|--3-----3-----0-----0-----|


  E  E  E  E  E  E  E  E     E  E   E  E  E  E  E  E   
--------0-----2--3--5-----|--7--8--10-----------------|
--1--3--1-----3--5--7-----|--------12-----------------|
--2-----------------------|--0--0---0--0--------------|
-----2-----2--0-----0--7--|-----0------0-----2-----2--|
--0-----0--3--------------|------------------2-----2--|
--------------------------|---------------0-----0-----|


  E  E  E  E  E  E  E  E     E  E  E  E  E  E  E  E   
-----------------0--2-----|--3--2--------------------|
-----0--1-----3--1-----1--|--------0-----------------|
--2-----------------------|-----0-----0--------------|
-----2-----2--0-----0-----|-----0-----0-----2-----2--|
--0--3--0--3--------------|-----------------2-----2--|
--------------------------|--3-----3-----0-----0-----|


  E  E  E  E  E  E  E  E     E  E  E  E  E  E  S E  S  
--------------0-----2--0--|--3--2--5--0--7--5--7-8--5-|
--1--0--3--1-----3-----1--|-----3-----8--8--7--7-8--5-|
--2--------2--------------|-----0--------0--0---------|
--------2-----------------|-----0-----------0---------|
--0--3--------0--3--------|---------------------------|
--------------------------|--3------------------------|


  E  E  E  E  E  E  E  E     E  E  E  S S Q    Q       
--7-----------------------|--------------------------||
--7-----------------------|--------------------------||
-----9-----9-----9-----9--|-----8--8--8-8-8---------*||
-----9-----9-----9-----9--|-----9--9--9-9-9---------*||
-----9-----9-----9-----9--|-----9--9--9-9-9----------||
--7-----------7-----------|--7-----------------------||




Duration Legend
---------------
W - whole
H - half
Q - quarter
E - 8th
S - 16th
T - 32nd
. - note dotted
|-n-|  - n-tuplets

Tablature Legend
----------------
L - tied note
(n) - ghost note
< - fade in
^ - brush up
v - brush down

2 comments on Saria's Song

Whooaa, nice job! This is the

5

Whooaa, nice job! This is the easiest, best tab so far, in my opinion.

Thankz Soupysoup (funny

Thankz Soupysoup (funny nickname :) Well to be honest my first version was a bit ugly ^^ ... fortunately Auriplane was here to explain me how fix it, thanks to her :-x