Login or Register to remove this ad. | Advertise Here

Song of Double Time (Legend of Zelda: Majora's Mask) Guitar Tab

Submitted: Jul 01, 2009 by gto213 (Last updated: Nov 20, 2010)

5
Average: 5 (1 vote)
Download | Listen
Game: Legend of Zelda: Majora's Mask
Composer(s): Koji Kondo, Toru Minegishi
Style: Transcription
Series: Legend of Zelda

AutoScroll: Slow | Medium | Fast
Song Of Double Time
Legend Of Zelda: Majora’s Mask
Koji Kondo
Gto213
6/27/2009

(speed up after the first time)
e----------------------------------
B----------------------------------     x2
G------14-14-----------------------
D---------------12-12----15-15-----
A----------------------------------
E----------------------------------

e-----------------------------
B-----------------------------
G—15-15-----------------------
D-----------14-14---17-17-----
A-----------------------------
E-----------------------------

Slow down for this part

e----------------------------------
B-14-14----------------17-17-18----
G—------------15-15----------------
D----------------------------------
A----------------------------------
E----------------------------------