Login or Register to remove this ad. | Advertise Here

Lost Woods (Legend of Zelda: A Link to the Past) Guitar Tab

Submitted: Mar 24, 2010 by diralark

4.666665
Average: 4.7 (3 votes)
Download | Listen
Game: Legend of Zelda: A Link to the Past
Composer(s): Koji Kondo
Style: Arrangement, Fingerstyle, Transcription
Series: Legend of Zelda

AutoScroll: Slow | Medium | Fast
Lost Woods                                    

Koji Kondo  >> piano arrang. by Kimberly Boman  >> tab by Diralark   

Nylon Guitar
         ^              ^           ^                        
      E  E  E  E  E  E  E  E     E  E  E  Q    S  S  Q       
E||---------------------------|----------------7p-5h-7-----||
B||------0--0--0-----0-----0--|-----0--0--0----------------||
G||*-----1--1-----------1-----|-----2--2------------------*||
D||*--2--------L--------2-----|--3-------------------L----*||
A||---------------------2-----|----------------------------||
E||---------------------------|----------------------------||


  VII --                                                     
         ^           ^              ^              ^         
  E      E  E  E  E  E  E  E     E  E  S  S  E  E  E  E  E   
---------7--7--7--7--1-----1--|-----0--------------0--0--0--|
---------------8-----0--3-----|-----1--5p-3h-5--------------|
---------7--------------------|-----------------0--0-----L--|
--5------------L--0--------L--|-----------------------------|
------------------------------|--3-----------L--------------|
------------------------------|-----------------------------|


      ^               ^               ^              ^         
  E   E   E   E   E   E   E  E     E  E  S  S  E  E  E  E  E   
----------------------0------0--|-----------------------------|
-----10--10--10--10--10--10-----|-----3--3p-1h-3-----3--3--3--|
-------------10-----------------|-----------------------------|
-----10-------------------------|-----3-----------3--3-----L--|
--8-----------L-----------------|--1-----------L--------------|
------------------8----------L--|-----------------------------|


  I ---                                                  
        ^                                ^               
  E     E  E  E  E  E  E  E     E  E  E  E  E  E  E  E   
--------3--3--3--3-----------|--------0--1-----0--1--3--|
--------------------1--1--1--|-----3-----3-----------3--|
--------1-----------1--------|--------------------------|
--------1--------1--------L--|-----3--------3--------L--|
-----------------------------|--1--------L--------------|
--4-----------L--------------|--------------------------|


                                ^                      
  E  E  E  E  E  E  E  E     E  E  E  E  E  E  E  E    
-----0--0--0-----0--0--0--|-----0--0--0-----0--0--0--||
-----1-----------1--------|-----1--------------------||
-----0--------0--------L--|-----0-----L--0--------L--||
--------------------------|--------------------------||
--3-----------L-----------|--------------------------||
--------------------------|--------------------------||

note : can be played slowly with tempo=90  (tempo=145 on original tune without brush)


Duration Legend
---------------
W - whole
H - half
Q - quarter
E - 8th
S - 16th
. - note dotted


Tablature Legend
----------------
L - tied note
h - hammer on
p - pull off
b - bend
^ - brush up
v - brush down

2 comments on Lost Woods

Hell yeah, this song! This is

5

Hell yeah, this song! This is the first arrangement I have seen from it. It sounds awesome! You made an excelent transcription of it!
Thank you very much for bringing up this nostalgic tune and for sharing it with us.
Hope to see more of your work!

yep this is really a pretty

yep this is really a pretty tune, thanks for encouragements sir Brave Toaster.