Login or Register to remove this ad. | Advertise Here

Light World Dungeon (Legend of Zelda: A Link to the Past) Guitar Tab

Submitted: Feb 27, 2010 by LTRobson

5
Average: 5 (3 votes)
Download | Listen
Game: Legend of Zelda: A Link to the Past
Composer(s): Koji Kondo
Style: Fingerstyle, Transcription
Series: Legend of Zelda

AutoScroll: Slow | Medium | Fast
The Legend of Zelda: A Link to the Past - Light World Dungeon (SNES)
Tabbed by LTRobson 28/02/2010

Standard tuning

-------------------
-------------------
-------------------
-------------4-----
-4---------------3-
-----3---2---------

-----------------------
-----------------------
-----------------------
-------------4-------0-
-4---------------3-----
-----3---2-------------

---------------------------
---------------------------
-------------2---1---------
-0---1---2-----------------
---------------------3---2-
---------------------------

---------------
---------------
-0-------------
-----4---------
---------1---0-
---------------

---------------
---------------
---------------
-3---2---------
---------------
---------4---3-

---------------------------
-------------------------5-
-------------------3--2--2-
-------------3--2--------1-
-------3--2----------------
-3--2----------------------


----------------------|----------------------|
----------------------|----------------------|
----------------------|----------------------|
----------------------|----------------------|
--2----2----2----2----|--2----2----2----2----|
----------------------|----------------------|

   
-----------------5----|-----------------5----|-----------------5----|----------------------|
-------2----3---------|-------2----3---------|-------2----3---------|----------------------|
----------------------|----------------------|----------------------|----------------------|
----------------------|----------------------|----------------------|----------------------|
--2----2----2----2----|--2----2----2----2----|--2----2----2----2----|--2----2----2----2----|
----------------------|----------------------|----------------------|----------------------|


-----------------4----|-----------------4----|-----------------4----|----------------------|
-------1----2---------|-------1----2---------|-------1----2---------|----------------------|
----------------------|----------------------|----------------------|----------------------|
----------------------|----------------------|----------------------|----------------------|
--1----1----1----1----|--1----1----1----1----|--1----1----1----1----|--1----1----1----1----|
----------------------|----------------------|----------------------|----------------------|

 
-----------------3----|-----------------3----|-----------------3----|----------------------|
-------0----1---------|-------0----1---------|-------0----1---------|----------------------|
----------------------|----------------------|----------------------|----------------------|
----------------------|----------------------|----------------------|----------------------|
--0----0----0----0----|--0----0----0----0----|--0----0----0----0----|--0----0----0----0----|
----------------------|----------------------|----------------------|----------------------|


-----------------4----|-----------------4----|-----------------4----|----------------------|
-------1----2---------|-------1----2---------|-------1----2---------|----------------------|
----------------------|----------------------|----------------------|----------------------|
----------------------|----------------------|----------------------|----------------------|
--1----1----1----1----|--1----1----1----1----|--1----1----1----1----|--1----1----1----1----|
----------------------|----------------------|----------------------|----------------------|


2 versions of this next part:

-----------------------|------------------7----|----------------------|-----------------------|
---10------------------|-------9-----10--------|----------------------|--------10---9---------|
-----------------------|-----------------------|----------------------|------------------6----|
-----------------------|-----------------------|----------------------|-----------------------|
-----------------------|-----------------------|----------------------|-----------------------|
---7----7----7----7----|--7----7-----7----7----|--7----7----7----7----|--7-----7----7----6----|
   

----------------------|----------------------|----------------------|----------------------|
----------------------|----------------------|----------------------|-----------------8----|
----------------------|----------------------|----------------------|-------6p5--6---------|
----------------------|----------------------|----------------------|----------------------|
----------------------|----------------------|----------------------|----------------------|
--6----6----6----6----|--6----6----6----6----|--6----6----6----6----|--6----6----6----5----|
    

----------------------|-----------------5----|----------------------|----------------------|
----------------------|-------7----8---------|----------------------|-------8----7---------|
----------------------|----------------------|----------------------|-----------------4----|
----------------------|----------------------|----------------------|----------------------|
----------------------|----------------------|----------------------|----------------------|
--5----5----5----5----|--5----5----5----5----|--5----5----5----5----|--5----5----5----4----|


----------------------|----------------------|----------------------|----------------------|
----------------------|----------------------|----------------------|----------------------|
----------------------|----------------------|----------------------|------------4p3--4----|
----------------------|----------------------|----------------------|----------------------|
----------------------|----------------------|----------------------|----------------------|
--4----4----4----4----|--4----4----4----4----|--4----4----4----4----|--4----4----4----4----|
   


----------------------|----------------------|--9-------------------|----------------------|
----------------------|--------------6--7----|----------------------|------------9---------|
----------------------|----------------------|----------------------|----------------------|
--8-------------------|------------8---------|----------------------|----------------------|
--6----6----6----6----|--6----6----6----6----|--6----6----6----6----|--6----6----6----6----|
----------------------|----------------------|----------------------|----------------------|
    

--8----7--------------|----------------------|----------------------|----------------------|
----------------------|----------------------|----------------------|----------------------|
----------------------|----------------------|----------------------|----------------------|
----------------------|----------------------|----------------------|----------------------|
--5----5----5----5----|--5----5----5----5----|--5----5----5----5----|--5----5----5----5----|
----------------------|----------------------|----------------------|----------------------|
   

----------------------|-------------------11---|---10------------------|-----------------------|
----------------------|----------------9-------|-----------------------|-------------11--------|
--8-------------------|------------------------|-----------------------|-----------------------|
----------------------|-------------10---------|-----------------------|-----------------------|
--8----8----8----8----|--8----8-----8-----8----|---8----8----8----8----|--8----8-----8----8----|
----------------------|------------------------|-----------------------|-----------------------|
    

-----------------------|----------------------|----------------------|----------------------|
---10------------------|----------------------|----------------------|----------------------|
-----------------------|----------------------|----------------------|----------------------|
-----------------------|----------------------|----------------------|----------------------|
---9----9----9----9----|--9----9----9----9----|--9----9----9----9----|--9----9----9----9----|
-----------------------|----------------------|----------------------|----------------------|


and this one, which I find easier to play:

-----------------------|------------------7----|----------------------|-----------------------|
---10------------------|-------9-----10--------|----------------------|--------10---9---------|
-----------------------|-----------------------|----------------------|------------------6----|
-----------------------|-----------------------|----------------------|-----------------------|
-----------------------|-----------------------|----------------------|-----------------------|
---7----7----7----7----|--7----7-----7----7----|--7----7----7----7----|--7-----7----7----6----|
   

----------------------|----------------------|----------------------|----------------------|
----------------------|----------------------|----------------------|-----------------8----|
----------------------|----------------------|----------------------|-------5----6---------|
----------------------|----------------------|----------------------|----------------------|
----------------------|----------------------|----------------------|----------------------|
--6----6----6----6----|--6----6----6----6----|--6----6----6----6----|--6----6----6----5----|
    

----------------------|-----------------5----|----------------------|----------------------|
----------------------|-------7----8---------|----------------------|-------8----7---------|
----------------------|----------------------|----------------------|-----------------4----|
----------------------|----------------------|----------------------|----------------------|
----------------------|----------------------|----------------------|----------------------|
--5----5----5----5----|--5----5----5----5----|--5----5----5----5----|--5----5----5----4----|


----------------------|----------------------|----------------------|----------------------|
----------------------|----------------------|----------------------|----------------------|
----------------------|----------------------|----------------------|------------3----4----|
----------------------|----------------------|----------------------|----------------------|
----------------------|----------------------|----------------------|----------------------|
--4----4----4----4----|--4----4----4----4----|--4----4----4----4----|--4----4----4----4----|
   


----------------------|----------------------|--9-------------------|----------------------|
----------------------|------------6----7----|----------------------|------------9---------|
----------------------|----------------------|----------------------|----------------------|
--8-------------------|----------------------|----------------------|----------------------|
--6----6----6----6----|--6----6----6----6----|--6----6----6----6----|--6----6----6----6----|
----------------------|----------------------|----------------------|----------------------|
    

--8----7--------------|----------------------|----------------------|----------------------|
----------------------|----------------------|----------------------|----------------------|
----------------------|----------------------|----------------------|----------------------|
----------------------|----------------------|----------------------|----------------------|
--5----5----5----5----|--5----5----5----5----|--5----5----5----5----|--5----5----5----5----|
----------------------|----------------------|----------------------|----------------------|
   

----------------------|-------------------11---|---10------------------|-----------------------|
----------------------|----------------9-------|-----------------------|-------------11--------|
--8-------------------|------------------------|-----------------------|-----------------------|
----------------------|-------------10---------|-----------------------|-----------------------|
--8----8----8----8----|--8----8-----8-----8----|---8----8----8----8----|--8----8-----8----8----|
----------------------|------------------------|-----------------------|-----------------------|
    

-----------------------|----------------------|----------------------|----------------------|
---10------------------|----------------------|----------------------|----------------------|
-----------------------|----------------------|----------------------|----------------------|
-----------------------|----------------------|----------------------|----------------------|
---9----9----9----9----|--9----9----9----9----|--9----9----9----9----|--9----9----9----9----|
-----------------------|----------------------|----------------------|----------------------|

2 comments on Light World Dungeon

This is really great, thanks

This is really great, thanks for submitting this.

Thankyoo.

Thankyoo.