Login or Register to remove this ad.

Kakariko Village (Legend of Zelda: A Link to the Past) Guitar Tab

Submitted: Sep 29, 2009 by auriplane (Last updated: Nov 29, 2015)

5
Average: 5 (6 votes)
Download | Listen
Game: Legend of Zelda: A Link to the Past
Composer(s): Koji Kondo
Style: 2 or more instruments, Transcription
Series: Legend of Zelda

AutoScroll: Slow | Medium | Fast
    Legend of Zelda - A Link to the Past - Kakariko Village GUITAR DUET TAB
                            Composed by Koji Kondo

                    Tabbed by auriplane (crystal@panix.com)



This tab is in Drop-D tuning.  

                                  FIRST GUITAR

        Intro

   E  E  E  E  E  E   E  E  E  E  E  E   E  E  E  E  E  E   E  E  E  E  E  E
E |------------------|------------------|------------------|------------------|
B |---------3--------|------------------|---------6--------|---------4--------|
G |------3-----3-----|------------------|------3-----3-----|------5-----5-----|
D |---3-----------3--|------5--8--5-----|---5-----------5--|---3-----------7--|
A |1-----------------|---5-----------5--|3-----------------|------------------|
D |------------------|5-----------------|------------------|3-----------------|

        Part A  (Repeat 2x)

   E  E  E  E  E  E   E  E  E  E  E  E   E  E  E  E  E  E   E  E  E  E  E  E
E |------------------|------------------|------------------|------------------|
B |---------3--------|------------------|---------6--------|---------4--------|
G |------3-----3-----|------------------|------3-----3-----|------5-----5-----|
D |---3-----------3--|------5--8--5-----|---5-----------5--|---3-----------7--|
A |1-----------------|---5-----------5--|3-----------------|------------------|
D |------------------|5-----------------|------------------|3-----------------|


   E  E  E  E  E  E   E  E  E  E  E  E   E  E  E  E  E  E   E  E  E  E  E  E
E |------------------|------------------|------------------|------------------|
B |---------3--------|------------------|---------6--------|---------4--------|
G |------3-----3-----|------------------|------3-----3-----|------5-----5-----|
D |---3-----------3--|------5--8--5-----|---5-----------5--|---3-----------7--|
A |1-----------------|---5-----------5--|3-----------------|------------------|
D |------------------|5-----------------|------------------|3-----------------|


   E  E  E  E  E  E   E  E  E  E  E  E   E  E  E  E  E  E   E  E  E  E  E  E
E |------------------|------------------|------------------|------------------|
B |------------------|------------------|------------------|------------------|
G |------3-----3-----|------2-----2-----|------3-----3-----|------3-----3-----|
D |---------5-----5--|---------3-----3--|---3-----3-----3--|---0-----0-----0--|
A |---1--------------|---3--------------|1-----------------|------------------|
D |1-----------------|3-----------------|------------------|5-----------------|

                                                            1st/2nd ending
   E  E  E  E  E  E   E  E  E  E  E  E   E  E  E  E  E  E   E  E  E  E  E  E
E |------------------|------------------|------------------|------------------|
B |------------------|------------------|------------------|------------------|
G |------3-----3-----|------2-----2-----|------3-----3-----|------3-----3-----|
D |---5-----5-----5--|------------------|---3-----3-----3--|---3-----3-----3--|
A |3-----------------|---3-----3-----3--|1-----------------|1-----------------|
D |------------------|3-----------------|------------------|------------------|

        Part B

   E  E  E  E  E  E   E  E  E  E  E  E   E  E  E  E  E  E   E  E  E  E  E  E
E |------------------|------------------|------------------|------------------|
B |------------------|------------------|------------------|------------------|
G |------3-----3-----|------3-----3-----|------3-----3-----|------3-----3-----|
D |---------5-----5--|---------5-----5--|---3-----3-----3--|---3-----3-----3--|
A |---1--------------|---1--------------|------------------|------------------|
D |1-----------------|1-----------------|0-----------------|0-----------------|


   E  E  E  E  E  E   E  E  E  E  E  E   E  E  E  E  E  E   E  E  E  E  E  E
E |------------------|------------------|------------------|------------------|
B |------------------|------------------|------------------|------------------|
G |------3-----3-----|------2-----2-----|------3-----3-----|------------------|
D |---5-----5-----5--|------------------|---3-----3-----3--|------6-----6-----|
A |3-----------------|---3-----3-----3--|1-----------------|---8-----8-----8--|
D |------------------|3-----------------|------------------|6-----------------|


   E  E  E  E  E  E   E  E  E  E  E  E   E  E  E  E  E  E   E  E  E  E  E  E
E |------------------|------------------|------------------|------------------|
B |------------------|------------------|------------------|------------------|
G |------3-----3-----|------3-----3-----|------3-----3-----|------3-----3-----|
D |---------5-----5--|---------5-----5--|---3-----3-----3--|---3-----3-----3--|
A |---1--------------|---1--------------|------------------|------------------|
D |1-----------------|1-----------------|0-----------------|0-----------------|

                                                                               ^
   E  E  E  E  E  E   E  E  E  E  E  E   E  E  E  E  E  E   E  E  E  E  E  E   H.
E |------------------|------------------|------------------|------------------|------------------|
B |------------------|------------------|------------------|---------3--------|3-----------------|
G |------3-----3-----|------2-----2-----|------3-----3-----|------3-----3-----|3-----------------|
D |---5-----5-----5--|------------------|---3-----3-----3--|---3-----------3--|3-----------------|
A |3-----------------|---3-----3-----3--|1-----------------|1-----------------|1-----------------|
D |------------------|3-----------------|------------------|------------------|------------------|










                                      SECOND GUITAR


        Intro

   H.                 H.                 H.                 H           Q
E |------------------|------------------|------------------|------------------|
B |------------------|------------------|------------------|------------------|
G |------------------|------------------|------------------|------------10----|
D |------------------|------------------|------------------|------------------|
A |------------------|------------------|------------------|------------------|
E |------------------|------------------|------------------|------------------|

        Part A (Repeat 2x)

   H           Q      H           Q      H.                 H           Q
E |------------------|10----------------|13----------------|L-----------------|
B |11----------------|------------11----|------------------|------------------|
G |------------10----|------------------|------------------|------------10----|
D |------------------|------------------|------------------|------------------|
A |------------------|------------------|------------------|------------------|
E |------------------|------------------|------------------|------------------|


   H           Q      H           Q      H.                 H           Q
E |------------------|10----------------|13----------------|L-----------13----|
B |11----------------|------------11----|------------------|------------------|
G |------------10----|------------------|------------------|------------------|
D |------------------|------------------|------------------|------------------|
A |------------------|------------------|------------------|------------------|
E |------------------|------------------|------------------|------------------|


   H.                 H           Q      H.                 H.
E |15----------------|------------15----|13----------------|10----------------|
B |------------------|------------------|------------------|------------------|
G |------------------|14----------------|------------------|------------------|
D |------------------|------------------|------------------|------------------|
A |------------------|------------------|------------------|------------------|
E |------------------|------------------|------------------|------------------|

                                                            1st ending
   H.                 H           Q      H.                 H          Q
E |10----------------|10----------------|------------------|------------------|
B |------------------|------------13----|11----------------|L-----------------|
G |------------------|------------------|------------------|-----------10-----|
D |------------------|------------------|------------------|------------------|
A |------------------|------------------|------------------|------------------|
E |------------------|------------------|------------------|------------------|

                                                            2nd ending
                                                            H           Q
                                                           |------------------|
                                                           |L-----------11----|
                                                           |------------------|
                                                           |------------------|
                                                           |------------------|
                                                           |------------------|
        Part B

   H.                 H           Q      H.                 H.
E |------------------|------------------|------------------|------------------|
B |11----------------|10----------13----|11----------------|------------------|
G |------------------|------------------|------------------|10----------------|
D |------------------|------------------|------------------|------------------|
A |------------------|------------------|------------------|------------------|
E |------------------|------------------|------------------|------------------|


   H           Q      H           Q      H.                 H           Q
E |------------------|------------------|------------------|------------------|
B |------------------|------------------|------------------|------------11----|
G |8-----------7-----|8-----------10----|7-----------------|L-----------------|
D |------------------|------------------|------------------|------------------|
A |------------------|------------------|------------------|------------------|
E |------------------|------------------|------------------|------------------|


   H.                 H           Q      H           Q      H.
E |------------------|------------------|------------------|13----------------|
B |11----------------|10----------13----|11----------------|------------------|
G |------------------|------------------|------------10----|------------------|
D |------------------|------------------|------------------|------------------|
A |------------------|------------------|------------------|------------------|
E |------------------|------------------|------------------|------------------|


   H.                 H           Q      H.                 H.                 H.
E |11----------------|10----------------|------------------|------------------|------------------|
B |------------------|------------13----|11----------------|L-----------------|------------------|
G |------------------|------------------|------------------|------------------|------------------|
D |------------------|------------------|------------------|------------------|------------------|
A |------------------|------------------|------------------|------------------|------------------|
E |------------------|------------------|------------------|------------------|------------------|




    Duration Legend
    ---------------
    W - whole
    H - half
    Q - quarter
    E - 8th
    . - note dotted


    Tablature Legend
    ----------------
    L - tied note
    ^ - brush up


Login or Register to remove this ad.

4 comments on Kakariko Village

This is beautiful, auri

5

This is beautiful, auri :)

Schnecken!!

wonderful!!

5

i love it!!
but next time.. do it for only one guitar >:3
for us lonely people who have no friends that are actually good at guitar :/

I actually tried but when I

I actually tried but when I moved the melody down an octave, it overlapped and sounded indistinct. :(

You are awsome auriplane.

You are awsome auriplane. Keep up the !great! work.