Login or Register to remove this ad. | Advertise Here

Kakariko Village (Legend of Zelda: A Link to the Past) Guitar Tab

Submitted: Sep 29, 2009 by auriplane (Last updated: Feb 06, 2010)

5
Average: 5 (5 votes)
Download | Listen
Game: Legend of Zelda: A Link to the Past
Composer(s): Koji Kondo
Style: 2 or more instruments, Transcription
Series: Legend of Zelda

AutoScroll: Slow | Medium | Fast
         Legend of Zelda - A Link to the Past - Kakariko Village GUITAR DUET TAB
                                  Composed by Koji Kondo
      
                         Tabbed by auriplane (crystal@panix.com)



This tab is in Drop-D tuning.

                                      FIRST GUITAR

     E  E  E  E  E  E     E  E  E  E  E  E     E  E  E  E  E  E     E  E  E  E  E  E   
E||--------------------|--------------------|--------------------|--------------------|
B||-----------3--------|--------------------|-----------6--------|-----------4--------|
G||--------3-----3-----|--------------------|--------3-----3-----|--------5-----5-----|
D||-----3-----------3--|--------5--8--5-----|-----5-----------5--|-----3-----------7--|
A||--1-----------------|-----5-----------5--|--3-----------------|--------------------|
D||--------------------|--5-----------------|--------------------|--3-----------------|


    E  E  E  E  E  E     E  E  E  E  E  E     E  E  E  E  E  E     E  E  E  E  E  E   
|---------------------|--------------------|--------------------|--------------------|
|------------3--------|--------------------|-----------6--------|-----------4--------|
|*--------3-----3-----|--------------------|--------3-----3-----|--------5-----5-----|
|*-----3-----------3--|--------5--8--5-----|-----5-----------5--|-----3-----------7--|
|---1-----------------|-----5-----------5--|--3-----------------|--------------------|
|---------------------|--5-----------------|--------------------|--3-----------------|


  E  E  E  E  E  E     E  E  E  E  E  E     E  E  E  E  E  E     E  E  E  E  E  E   
--------------------|--------------------|--------------------|--------------------|
-----------3--------|--------------------|-----------6--------|-----------4--------|
--------3-----3-----|--------------------|--------3-----3-----|--------5-----5-----|
-----3-----------3--|--------5--8--5-----|-----5-----------5--|-----3-----------7--|
--1-----------------|-----5-----------5--|--3-----------------|--------------------|
--------------------|--5-----------------|--------------------|--3-----------------|


  E  E  E  E  E  E     E  E  E  E  E  E     E  E  E  E  E  E     E  E  E  E  E  E   
--------------------|--------------------|--------------------|--------------------|
--------------------|--------------------|--------------------|--------------------|
--------3-----3-----|--------2-----2-----|--------3-----3-----|--------3-----3-----|
-----------5-----5--|-----------3-----3--|-----3-----3-----3--|-----0-----0-----0--|
-----1--------------|-----3--------------|--1-----------------|--------------------|
--1-----------------|--3-----------------|--------------------|--5-----------------|


  E  E  E  E  E  E     E  E  E  E  E  E     E  E  E  E  E  E     E  E  E  E  E  E     
--------------------|--------------------|--------------------|---------------------||
--------------------|--------------------|--------------------|---------------------||
--------3-----3-----|--------2-----2-----|--------3-----3-----|--------3-----3-----*||
-----5-----5-----5--|--------------------|-----3-----3-----3--|-----3-----3-----3--*||
--3-----------------|-----3-----3-----3--|--1-----------------|--1------------------||
--------------------|--3-----------------|--------------------|---------------------||


  E  E  E  E  E  E     E  E  E  E  E  E     E  E  E  E  E  E     E  E  E  E  E  E   
--------------------|--------------------|--------------------|--------------------|
--------------------|--------------------|--------------------|--------------------|
--------3-----3-----|--------3-----3-----|--------3-----3-----|--------3-----3-----|
-----3-----3-----3--|-----------5-----5--|-----------5-----5--|-----3-----3-----3--|
--1-----------------|-----1--------------|-----1--------------|--------------------|
--------------------|--1-----------------|--1-----------------|--0-----------------|


  E  E  E  E  E  E     E  E  E  E  E  E     E  E  E  E  E  E     E  E  E  E  E  E   
--------------------|--------------------|--------------------|--------------------|
--------------------|--------------------|--------------------|--------------------|
--------3-----3-----|--------3-----3-----|--------2-----2-----|--------3-----3-----|
-----3-----3-----3--|-----5-----5-----5--|--------------------|-----3-----3-----3--|
--------------------|--3-----------------|-----3-----3-----3--|--1-----------------|
--0-----------------|--------------------|--3-----------------|--------------------|


  E  E  E  E  E  E     E  E  E  E  E  E     E  E  E  E  E  E     E  E  E  E  E  E   
--------------------|--------------------|--------------------|--------------------|
--------------------|--------------------|--------------------|--------------------|
--------------------|--------3-----3-----|--------3-----3-----|--------3-----3-----|
--------6-----6-----|-----------5-----5--|-----------5-----5--|-----3-----3-----3--|
-----8-----8-----8--|-----1--------------|-----1--------------|--------------------|
--6-----------------|--1-----------------|--1-----------------|--0-----------------|


  E  E  E  E  E  E     E  E  E  E  E  E     E  E  E  E  E  E     E  E  E  E  E  E   
--------------------|--------------------|--------------------|--------------------|
--------------------|--------------------|--------------------|--------------------|
--------3-----3-----|--------3-----3-----|--------2-----2-----|--------3-----3-----|
-----3-----3-----3--|-----5-----5-----5--|--------------------|-----3-----3-----3--|
--------------------|--3-----------------|-----3-----3-----3--|--1-----------------|
--0-----------------|--------------------|--3-----------------|--------------------|

                       ^              
  E  E  E  E  E  E     H.             
--------------------|---------------||
-----------3--------|--3------------||
--------3-----3-----|--3------------||
-----3-----------3--|--3------------||
--1-----------------|--1------------||
--------------------|---------------||




                                      SECOND GUITAR

     H.              H.              H.              H         Q          H         Q     
E||---------------|---------------|---------------|-----------------||-------------------|
B||---------------|---------------|---------------|-----------------||---11--------------|
G||---------------|---------------|---------------|-----------10----||*------------10----|
D||---------------|---------------|---------------|-----------------||*------------------|
A||---------------|---------------|---------------|-----------------||-------------------|
E||---------------|---------------|---------------|-----------------||-------------------|


   H         Q        H.               H         Q        H         Q        H         Q     
--10--------------|--13------------|---L--------------|------------------|--10--------------|
------------11----|----------------|------------------|--11--------------|------------11----|
------------------|----------------|------------10----|------------10----|------------------|
------------------|----------------|------------------|------------------|------------------|
------------------|----------------|------------------|------------------|------------------|
------------------|----------------|------------------|------------------|------------------|


   H.               H         Q        H.               H         Q        H.            
--13------------|---L--------13----|--15------------|------------15----|--13------------|
----------------|------------------|----------------|------------------|----------------|
----------------|------------------|----------------|--14--------------|----------------|
----------------|------------------|----------------|------------------|----------------|
----------------|------------------|----------------|------------------|----------------|
----------------|------------------|----------------|------------------|----------------|


   H.               H.               H         Q        H.               H         Q       
--10------------|--10------------|--10--------------|----------------|-------------------||
----------------|----------------|------------13----|--11------------|---L---------------||
----------------|----------------|------------------|----------------|------------10----*||
----------------|----------------|------------------|----------------|------------------*||
----------------|----------------|------------------|----------------|-------------------||
----------------|----------------|------------------|----------------|-------------------||


   H         Q        H.               H         Q        H.               H.            
------------------|----------------|------------------|----------------|----------------|
---L--------11----|--11------------|--10--------13----|--11------------|----------------|
------------------|----------------|------------------|----------------|--10------------|
------------------|----------------|------------------|----------------|----------------|
------------------|----------------|------------------|----------------|----------------|
------------------|----------------|------------------|----------------|----------------|


  H        Q       H         Q       H.              H         Q        H.            
----------------|-----------------|---------------|-----------------|----------------|
----------------|-----------------|---------------|-----------11----|--11------------|
--8--------7----|--8--------10----|--7------------|--L--------------|----------------|
----------------|-----------------|---------------|-----------------|----------------|
----------------|-----------------|---------------|-----------------|----------------|
----------------|-----------------|---------------|-----------------|----------------|


   H         Q        H         Q        H.               H.               H         Q     
------------------|------------------|--13------------|--11------------|--10--------------|
--10--------13----|--11--------------|----------------|----------------|------------13----|
------------------|------------10----|----------------|----------------|------------------|
------------------|------------------|----------------|----------------|------------------|
------------------|------------------|----------------|----------------|------------------|
------------------|------------------|----------------|----------------|------------------|


   H.               H.              H.             
----------------|----------------|---------------||
--11------------|---L------------|---------------||
----------------|----------------|---------------||
----------------|----------------|---------------||
----------------|----------------|---------------||
----------------|----------------|---------------||




Duration Legend
---------------
W - whole
H - half
Q - quarter
E - 8th
. - note dotted


Tablature Legend
----------------
L - tied note
^ - brush up

4 comments on Kakariko Village

This is beautiful, auri

5

This is beautiful, auri :)

Schnecken!!

wonderful!!

5

i love it!!
but next time.. do it for only one guitar >:3
for us lonely people who have no friends that are actually good at guitar :/

I actually tried but when I

I actually tried but when I moved the melody down an octave, it overlapped and sounded indistinct. :(

You are awsome auriplane.

You are awsome auriplane. Keep up the !great! work.