Login or Register to remove this ad. | Advertise Here

Hyrule Castle (Legend of Zelda: A Link to the Past) Guitar Tab

Submitted: Aug 12, 2010 by hslesperance (Last updated: Feb 15, 2011)

5
Average: 5 (2 votes)
Download | Listen
Game: Legend of Zelda: A Link to the Past
Composer(s): Koji Kondo
Style: Transcription
Series: Legend of Zelda

AutoScroll: Slow | Medium | Fast
Hyrule Castle
The Legend of Zelda: A Link to the Past
Composed by Koji Kondo
Tabbed by hslesperance
2/17/09

Standard Tuning


e-------------------------------------------------------------
B---------------------0---------------------------------------
G---0-0-0-----0----1----0-------------------------------------
D----------3-------------------------------0---0----------0---
A-------------------------------------------------3----3------
E-------------------------------------------------------------

e-------------------------------------------------------------
B-------------------------------------------------------------
G-------------------------------------------------------------
D---0--0--0-0-0--0--1-----0--5---5--3----3--5----5--5--5-5-5--
A----------------------4-----5---5--3----3--5----5--5--5-5-5--
E-------------------------------------------------------------
             *
e-------------------------------------------------------------
B-------------------------------------------------------------
G------1-----0-----------------------0--1--3-----3-0----------
D---5--1--4-----------0------------------------4--------------
A---5-----4---------------------------------------------------
E-------------------------------------------------------------

e-------------------------------------------------------------
B-------------------------------------------------------------
G--------------------0-----------------------0--1--3-----3-0--
D---0-------------------------0------------------------4------
A-------------------------------------------------------------
E-------------------------------------------------------------

e-----------------------------------------------1-------------
B--------------------1-----------------------1-----4---2-0-1--
G-----------------------------0-------------------------------
D---0---------------------------------------------------------
A-------------------------------------------------------------
E-------------------------------------------------------------

e-------------------------------------------------------------
B-------------------------------------------------------------
G---0----------------0-----------------------0--1--3-----3-0--
D-----------------------------0------------------------4------
A-------------------------------------------------------------
E-------------------------------------------------------------

e--------------------------------------------------------1----
B--------------------------------------1-----------3--4-----4-
G-----------------------------------------0-------------------
D---0----------------3-----1-0-1----3-------------------------
A-------------------------------------------------------------
E-------------------------------------------------------------

e------------------------------------------1------------------
B---3--------------------1-----------3--4-----4--3------------
G---------------------------0---------------------------------
D------3-----1-0-1----3-----------------------------3-----1-0-
A-------------------------------------------------------------
E-------------------------------------------------------------

e-------------------------------------------------------------
B---------------------------------------1---------------------
G------------0--3-----1--0-----0--1--3--------3--2--0--2--3---
D------0--3-----------------3---------------------------------
A---3---------------------------------------------------------
E-------------------------------------------------------------

e-------------------------------------------------------------
B---1--3--------L-------------------------3--2----------------
G------0-----------------0----------2--3--------------2-------
D---------------4---------------------------------------------
A-------------------------------------------------------------
E-------------------------------------------------------------

e-------------------------------------------------------------
B---1---------------------------------------------------3--2--
G------------3-----3--0----------------0----------2--3--------
D---------------4---------------------------------------------
A-------------------------------------------------------------
E-------------------------------------------------------------

e-------------------------------------------------------------
B------------1----------------------------------4--------4--1-
G---2-----------------3-----3--0------------------------------
D------------------------4------------------------------------
A-------------------------------------------------------------
E-------------------------------------------------------------

e-------------------------------------------------------------
B------4--3----------------1--------1--------1----------------
G---0----------------------------------0--------3-------------
D-----------------------------------------1-------------------
A-------------------------------------------------------------
E-------------------------------------------------------------

e-------------------------------------------------------------
B---4--------4--1-----4--3--------3--------3--1---------------
G------------------0-----------------3-----------------2------
D---------------------------------------3-----------------4---
A-------------------------------------------------------------
E-------------------------------------------------------------

e-------------------------------------------------------------
B------1------------------------------------------------------
G---------3---------------------------------------------------
D---1------------------------------5--5--3----3--5----5--5----
A----------------------------------5--5--3----3--5----5--5----
E-------------------------------------------------------------

e-------------------------------------------------------------
B-------------------------------------------------------------
G-------------1-----------------------------------------------
D---5-5-5--5--1--4--------------------------------------------
A---5-5-5--5-----4--------------------------------------------
E-------------------------------------------------------------

L - tied note
* - return to this point at end and repeat

8 comments on Hyrule Castle

Great tab! By the way you

Great tab!
By the way you might want to fix your audio tab. :)

Thank you. Yeah, I recently

Thank you.

Yeah, I recently started going through my old tabs to fix any broken youtube links

Ugh.. I've fixed a few, but

Ugh.. I've fixed a few, but going through and doing them all at once seems so daunting T_T

Haha, ya I know sitting in

Haha, ya I know sitting in front of this computer for 4 hours straight on the weekends is really tiring. XD

It would take more than four

It would take more than four hours ^-^;

Do you have a lot of youtube

Do you have a lot of youtube videos on your tabs auri? Mine are mostly midis and mp3s. I hope you don't have 400 youtube links to check.

so much 4s, not enough 6s i

so many 4s, not enough 6s

i had a dream about this very occurrence!

Cool, thanks. I'm probably

Cool, thanks. I'm probably gonna do a recording of this pretty soon.