Login or Register to remove this ad. | Advertise Here

Church (Legend of Zelda: A Link to the Past) Guitar Tab

Submitted: Apr 08, 2010 by Agahnim

4.81818
Average: 4.8 (11 votes)
Download | Listen
Game: Legend of Zelda: A Link to the Past
Composer(s): Koji Kondo
Style: Arrangement, Fingerstyle
Series: Legend of Zelda

Click here for a video example.

AutoScroll: Slow | Medium | Fast
Church
The Legend of Zelda: A link to the Past
Composed by: Koji Kondo
Arranged by: Ivo Koporcic
April 6, 2010
CAPO on 3

      ^                 ^                 ^                   
      E  E  H           E  E  H           E  E  H.            
G ||-----------------|-----------------|--5--7--4------------|
D ||--1--3--0--------|--1--3--0--------|---------------------|
A#||--2-----1--------|--2-----1--------|--5-----4------------|
F ||--3-----2--------|--3-----2--------|--3-----2------------|
C ||-----------------|-----------------|---------------------|
G ||-----------------|-----------------|---------------------|


  E  E  E  E  E  E  E  E       E  E  E  E  E  E  E  E   
--0--------5--4-----------||---0--------5--4-----------|
-----1-----------5--------||------1-----------5--------|
--------2-----------4-----||*--------2-----------4-----|
-----------------------6--||*-----2-----------6-----6--|
--------------------------||---0-----------------------|
--------------------------||---------------4-----------|


  E  E  E  E  E  E  E  E     E  E   E   E   E  E  E  E   
--0--------5--4--5--7--4--|--5--0------12--12--7--------|
-----1--------------------|-----0--10-------------9-----|
--------0-----------------|--------------------------9--|
-----2-----------------4--|--3-----10-------------9-----|
-----------------4--------|--------------------7--------|
--3-----------2-----------|-----------------0-----------|


  E  E   E   E   E  E  E  E     E  E  E  E  E  E  E  E   
--5--0------12--12--7--------|--5--2-----------------5--|
-----0--10-------------9-----|--------1--------1--4-----|
--------------------------9--|--------2-----------------|
--3-----10-------------9-----|--1--------4--1-----1-----|
--------------------7--------|--------------------------|
-----------------0-----------|--------------------------|


  ^                            ^                          ^                  
  E  E  E  E  E  E  E  E       E  E  E  E  E  E  E  E     W                  
--4-----1--0---------------||--4-----1--0-----------4--|--5----------------||
--0--3--------0--3--0------||--0--3--------0--3--0-----|--5----------------||
--------------1--------1--*||--------------1-----------|--5----------------||
--2-----0-----------2-----*||--2-----------------2-----|--7----------------||
-----------------2---------||-----------------2--------|-------------------||
--------------0------------||--------------0-----------|-------------------||




Duration Legend
---------------
W - who-e
H - ha-f
Q - quarter


Tablature Legend
----------------
^ - brush up

13 comments on Church

...

5

Not bad at all!! 5*

This is awesome. But why not

5

This is awesome. But why not just put the capo on 6?

That's what I did. It's just

That's what I did. It's just easier that way than re-tuning. =)

You aren't supposed to tune

You aren't supposed to tune up all the strings. Agahnim for some reason always changes the letter in front of each string when using a capo.

Ahhh, gotcha. Thanks,

Ahhh, gotcha. Thanks, trilateral. =)

It might save people some

It might save people some strings if it were noted that this is standard tuning.

Yes, My fault

That's a gap people accounted me once in the forum but I forgot when submitting this because I was a long time gone from posting. I'll consider that next tab.

This happens because of quickly doing the process of exporting from guitar pro to TXT, edit TXT and all other things. ( I change the tuning in GP to play it as if it were the fretboard with the capo on it)
Sorry about the miss-tabbing.

If I could fix all tabs I would do it. Is there anything I could do to prevent any confusion?. I can fix my own txt files then submit them again, I think the problem is just in the TXT files, not the GP5 ones.

You know GP has a capo

You know GP has a capo option, right? :o

Like Trang said, GP has a

Like Trang said, GP has a capo option built in. When set, you just enter the tab relative to the capo (just like you have it in your TXT.)

No matter what you do, the notation staff in GP5 assumes the tab is standard tuning, so it looks like the first triad in this is an F when it's actually a G#. TuxGuitar does the same thing.

I guess it makes it easier to sight-read based on known fingerings, but an option would be nice...

Ah, it's apparently supposed

Ah, it's apparently supposed to be that way. Guitar is normally a transposing instrument, and without a capo the transposition is one octave. But with a capo, the transposition changes.

Here is a reference.

(insert "The More You Know"

(insert "The More You Know" star animation)

I guess it would be pretty unlikely that both apps would have screwed that up, in retrospect.

Thank you for the dropping of knowledge!

Didn't rate this before

5

This comment is just to give a rating. Excellent.

Hel yeah, this sounds great!

5

Hel yeah, this sounds great! Excelent song choice, fitted the guitar very smoothly!
Thank you very much for sharing it with us!