Login or Register to remove this ad. | Advertise Here

Opening Demo (Legend of Zelda: A Link to the Past) Guitar Tab

Submitted: May 18, 2009 by auriplane (Last updated: Feb 04, 2010)

5
Average: 5 (2 votes)
Download | Listen
Game: Legend of Zelda: A Link to the Past
Composer(s): Koji Kondo
Style: Arrangement, Fingerstyle
Series: Legend of Zelda

AutoScroll: Slow | Medium | Fast
        Legend of Zelda - A Link to the Past - Opening Demo GUITAR TAB
                              Song by Koji Kondo

                   Tabbed by auriplane (crystal@panix.com)
                                On May 18, 2009

This is basically just the melody and bassline squished into one guitar
tab, in drop-C tuning.  Note the change to 3/4 time at Part B.

d |----------------|----------------|----------------|----------------|
A |----5-----------|----6-----------|----7-----------|----8-----------|
F |----2-----------|----3-----------|----4-----------|----5-----------| x2
C |----0-----------|----0-----------|----0-----------|----0-----------|
G |--0-------------|--0-------------|--0-------------|--0-------------|
C |0---------------|0---------------|0---------------|0---------------|
                                                      
d |----------------|----------------|----------------|----------------| \
A |2-----------0---|0---------------|5-----------3---|3---------------|  |
F |----0---------2-|----5-----------|--------------5-|----3-----------|  |
C |--0-------------|--5-------------|----3-----------|--3-------------|  |
G |----------------|3---------------|--3-------------|1---------------|  |
C |5---------------|----------------|3---------------|----------------|  |
                                                                         | x2
d |----------------|----------------|----------------|----------------|  |
A |3-----------2---|3-----------2---|2---------------|----------------|  |
F |----4---------4-|--------------4-|----2-----------|----2-----------|  |
C |--4-------------|----2-----------|--2-------------|--2-------------|  |
G |2---------------|--2-------------|0---------------|0---------------|  |
C |----------------|2---------------|----------------|----------------| /

    Switch to 3/4 time

d |--------0---|--------0---|------------|------------|
A |0-----------|0-----------|3-------2-3-|0-----------|
F |----5-------|----5-------|----4-------|----4-------|
C |--5---------|--5---------|--4---------|--4---------|
G |3-----------|3-----------|2-----------|2-----------|
C |------------|------------|------------|------------|
                                          
d |------------|------------|------------|------------|
A |------------|------------|0-----------|------------|
F |0-------5---|0-------5---|----0-------|----0-------|
C |----7-------|----4-------|--0---------|--0---------|
G |--7---------|--0---------|------------|------------|
C |7-----------|0-----------|5-----------|5-----------|
                                          
d |--------0---|--------0---|------------|------------|
A |0-----------|0-----------|3-------2-3-|0-----------|
F |----5-------|----5-------|----4-------|----4-------|
C |--5---------|--5---------|--4---------|--4---------|
G |3-----------|3-----------|2-----------|2-----------|
C |------------|------------|------------|------------|
                                          
d |------------|------------|------------|------------|
A |--------3---|------------|0-----------|------------|
F |2---2-------|2---0---2---|----2-------|6-----------|
C |--3---------|--3---------|--2---------|----6-------|
G |1-----------|1-----------|0-----------|--6---------|
C |------------|------------|------------|6-----------|

    Repeat back to Part A.