Login or Register to remove this ad. | Advertise Here

Opening Demo (Legend of Zelda: A Link to the Past) Guitar Tab

Submitted: May 17, 2009 by Tanimax

3.8
Average: 3.8 (5 votes)
Download | Listen
Game: Legend of Zelda: A Link to the Past
Composer(s): Koji Kondo
Style: Transcription
Series: Legend of Zelda

AutoScroll: Slow | Medium | Fast
Game: Legend of Zelda: A Link to the Past
Song: Opening Sequence
Composer: Koji Kondo
Tabber: Tanimax

Whey, love this song. Auriplane said she tabbed bass so I decided to
trancsribe the melody. Enjoy ^_^


|-----------------------------------|
|-8---9---10---11---8---9---10---11-|
|-----------------------------------|
|-----------------------------------|
|-----------------------------------|
|-----------------------------------|
The intro part... which I just copied form my Rain tab :P

|--------------------------------------------------------------|
|-12--------------15---13----13---13----12----13----12----12---|
|------14-12-14-----------15---------------14----------14------|
|--------------------------------------------------------------|
|--------------------------------------------------------------|
|--------------------------------------------------------------|
Lah Melody. Repeat this first part twice.

|---------------------------------------------------------------|
|-----15-----15-13--12-13---------------------------------------|
|-14-----14---------------14--------15-------15-14--------------|
|-------------------------------15-----15-14--------------------|
|---------------------------------------------------------------|
|---------------------------------------------------------------|

|---------------------------------------------------------------|
|-----15-----15-13--12-13-----------13--------------------------|
|-14-----14---------------14----12-----12----13-------12--------|
|-----------------------------------------15----14--------------|
|---------------------------------------------------------------|
|---------------------------------------------------------------|

Enjoy ^_^

2 comments on Opening Demo

Ending needs to be changed

4
l -------------------------
l ----13-------------------
l 12-----12----13-------12
l ----------15----14-------
l -------------------------
l -------------------------

This part at the ending doesn't sound right, the rest of the song sounds perfect but this part should sound different

I absolutely love it...

5

change this for the ending perhaps this tab is perfect...
l -------------------------------------
l -----13------------------------------
l 12--------12-----------12---14---16--
l ------------------15-----------------
l -------------------------------------
l -------------------------------------