Login or Register to remove this ad. | Advertise Here

Fairy Fountain & File Selection Theme (Legend of Zelda: A Link to the Past) Guitar Tab

Submitted: Jun 21, 2009 by mokshaingive (Last updated: Dec 30, 2009)

4
Average: 4 (3 votes)
Download | Listen
Game: Legend of Zelda: A Link to the Past
Composer(s): Koji Kondo
Style: Arrangement, Fingerstyle
Series: Legend of Zelda

This song is also called File Selection Theme

AutoScroll: Slow | Medium | Fast
The Legend of Zelda: A Link to the Past - Fairy Fountain & File Selection Theme
 


Composed by Koji Kondo

Arranged for guitar by Michael Musclow

BPM - 90


Tuning: 1 - E  4 - D   
        2 - B  5 - A   
        3 - G  6 - E


                                            
E:-5-------3-------2-------3-------|-3-------1-------0-------1-------|
B:---3-------3-------3-------3-----|---1-------1-------1-------------|
G:-----3-0-----3-0-----3-0-----3-0-|-----2-------2-------2-----2-----|
D:-----0-------------0-----------0-|-------3-------3-------3---3-3---|
A:---1---0-------------0---3-0-----|---0-3-------------------3---3---|
E:-----------------------3-----3---|---------------------------------|

                                             
E:-1-------0---------------0-------|-0-------------------------------|
B:---3-------3-----4-3-------3-----|---------3-------2-------3-------|
G:-----3-0-----3-0-----2-0-0---3-0-|---2-0-2---2-0-----2-0---0-2-0-2-|
D:-------3-------------3-2---3-----|-----0-0-------0-------0---3---0-|
A:-----1-----------------------3-1-|---1---------------0---------3---|
E:---3-----------------------------|---------------------------------|

        
E:-5-------3-------2-------3-------|-6-------5-------4-------5-------|
B:---3-------3-------3-------3-----|---4-------4-------4-----4-4-----|
G:-----3-0-----3-0-----3-0-----3-0-|-----5-5-----5-------5-0-----5---|
D:-----0-------------0-----------0-|-------4-------4-------4-------4-|
A:---1---0-------------0---3-0-----|-----3-------------5-------------|
E:-----------------------3-----3---|---5-----------------------------|


E:-8-------6-------5-------6-------|-5-------3-------1-------0-------|
B:-----5-8-------8-------8-----8-8-|---------------------------------|
G:---7-------7-------7-------7---9-|---3-0-3---3-0-----3-0-0---3-0---|
D:-5---8-------8-----8-8---5---8---|-----2-2-------2-------2---0---2-|
A:---------------------------------|---3-----------------1-----------|
E:---------------------------------|-----------------------------3-0-|


Repeat as desired

1 comment on Fairy Fountain & File Selection Theme

o_O

well. haven't seen this tab before. :D i'll check it out and leave my rating when i can play it down. :D