Login or Register to remove this ad. | Advertise Here

Ending Theme (Legend of Zelda: A Link to the Past) Guitar Tab

Submitted: May 11, 2009 by Tanimax (Last updated: May 11, 2009)

4.333335
Average: 4.3 (3 votes)
Download | Listen
Game: Legend of Zelda: A Link to the Past
Composer(s): Koji Kondo
Style: Transcription
Series: Legend of Zelda

AutoScroll: Slow | Medium | Fast
Game: The Legend of Zelda: A Link to the Past
Song: Ending Theme
Composer: Koji Kondo
Tabber: Tanimax
Date: May 11, 2009

#----------------------------------PLEASE NOTE---------------------------------#
#This file is the author's own work and represents their interpretation of the #
#song. You may only use this file for private study, scholarship, or research. #
#------------------------------------------------------------------------------#

Yo, welcome to my first tab. I'm pretty proud of this, so if everyone likes it...
I'll tab out the rest of the song.

I can describe this song in one word: Victory. This song EXUDES victroy, it hammers your 
ears with pure epic win. Seriously. =D

The MIDI I included is z3ending2 from http://www.kasuto.net . Awesome site with a pretty 
good music collection in his part.

This is the first song I worked out by ear, and I say I did a fine job... before I used 
the notes in the MIDI to correct it :P. But I got the general idea and most of the 
intervals pretty good ^_^ I might post my original attempt sometime.

Edit 1: I added chords for supreme embellishment. Problem came when I needed to add some 
onto a G and one an octave lower. Since I can't play it twice myself, I just missed out 
the e & B strings when playing it. I represent this by G]. See how it sounds.

Without further ado, the tab.

 4/4
  Gtr I
	C	  D	    F 	      C	      A       D       C         G]
|---------------------------13--12--------------------------------------------|
|-------13-----13-15-----15--------15-13----------13--15--13--13---12---------|
|-12-12-----12--------12------------------12--14----------------------14-12---|
|-----------------------------------------------------------------------------|
|-----------------------------------------------------------------------------|
|-----------------------------------------------------------------------------|

	C	  D	    F          G   C         F     A         G
|---------------------------13---12-13-15------------13--------------15----|
|-------13-----13-15-----15----------------13-12-----------------12--------|
|-12-12-----12--------12-------------------------14--------14-14-----------|
|--------------------------------------------------------------------------|
|--------------------------------------------------------------------------|
|--------------------------------------------------------------------------|



	C	  D	    F 	      C	      A       D        C         G]
|---------------------------13--12--------------------------------------------|
|-------13-----13-15-----15--------15-13----------13--15--13--13---12---------|
|-12-12-----12--------12------------------12--14----------------------14-12---|
|-----------------------------------------------------------------------------|
|-----------------------------------------------------------------------------|
|-----------------------------------------------------------------------------|

        C         D         F          G         A  F       D         C
|---------------------------13---12-13-15------------13---------------------|
|-------13-----13-15-----15----------------13-12---------15-15-13-12-13-----|
|-12-12-----12--------12-------------------------14-------------------------|
|---------------------------------------------------------------------------|
|---------------------------------------------------------------------------|
|---------------------------------------------------------------------------|

These two are the same as the first two, but fretted five up... at least, how I play them.
|---------------------------18--17--------------------------------------------|
|-------18-----18-20-----20--------20-18----------18--20--18--18---17---------|
|-17-17-----17--------17------------------17--19----------------------19-17---|
|-----------------------------------------------------------------------------|
|-----------------------------------------------------------------------------|
|-----------------------------------------------------------------------------|
This part is the ending (of the ending). In the song, it's actually played at the 
same pitch as the rest of the song, but on a different instrument. On the one 
instrument, I justed raised it by five frets... which I think plays like a charm ^_^


|---------------------------18---17-18-20------------18--------------20----|
|-------18-----18-20-----20----------------18-17-----------------18--------|
|-17-17-----17--------17-------------------------19--------19-19-----------|
|--------------------------------------------------------------------------|
|--------------------------------------------------------------------------|
|--------------------------------------------------------------------------|
There's actually a bit extra here... I'll add it onto any extra I tab out...

If your likin', comment, and I'll work out smore. Mmm, smores.
***************************************************************************************
* Generated using Power Tab Editor by Brad Larsen - http://powertab.guitarnetwork.org *  (check it out, 'tis very good ^_^)
***************************************************************************************

-Tanimax-