Login or Register to remove this ad. | Advertise Here

Dark World (Legend of Zelda: A Link to the Past) Guitar Tab

Submitted: May 18, 2009 by Tanimax

4.333335
Average: 4.3 (3 votes)
Download | Listen
Game: Legend of Zelda: A Link to the Past
Composer(s): Koji Kondo
Style: Transcription
Series: Legend of Zelda

AutoScroll: Slow | Medium | Fast

Legend of Zelda: A Link to the Past
Dark World
Composed by Koji Kondo
Tabbed by Tanimax

Dark World FTW! I figured this one out ages ago... just wrote it down now. Also, the first tab I've posted my self... tis good ^_^

|------------8-5^6^5----------------------------|
|---8------8------------6-8------6--------------|
|-5------5------------------5------7^8^7------5-|
|-------------------------------------------8---|
|-----------------------------------------------|
|-----------------------------------------------|

La Repeate.

|---5-6------6-5--------------------------------|
|-8--------8-----8-7------6-8------8-6----------|
|-----------------------8--------5-----8-7------|
|-----------------------------------------------|
|-----------------------------------------------|
|-----------------------------------------------|

|---5-------------------------------------------|
|-8---8------8-6-8-10----8----7-8-7-6-7---------|
|----------8-------------------------------7----|
|-----------------------------------------------|
|-----------------------------------------------|
|-----------------------------------------------|

|-8----------8-6------------------------------------|
|---8-6-8--------8-6-8----11------------11-10-------|
|----------------------------10-8-10----------8-7-8-|
|---------------------------------------------------|
|---------------------------------------------------|
|---------------------------------------------------|

|------------8----------8--10----|
|-8-------8----8-6-8-------------|
|---7-5-7------------------------|
|--------------------------------|
|--------------------------------|

Enjoy ^_^

1 comment on Dark World

Great job!

Great job!