Login or Register to remove this ad. | Advertise Here

Boss Theme (Legend of Zelda: A Link to the Past) Guitar Tab

Submitted: May 12, 2009 by Tanimax

5
Average: 5 (2 votes)
Download | Listen
Game: Legend of Zelda: A Link to the Past
Composer(s): Koji Kondo
Style: Transcription
Series: Legend of Zelda

AutoScroll: Slow | Medium | Fast
Game: Legend of Zelda: A Link to the Past
Song: Boss Theme
Composer: Koji Kondo
Tabber: Tanimax

This is one of my all time favourtie tunes. I love it!

Kudos to Archard btw. I used his tab as a reference for
the intro, I had forgotten an interval or two... :P

Also kudos to auriplane. I'd got power chords two frets down...
I put the first at root g instead of root a... meh
I do know the song, just an accident >_>


|--------------------|
|--------------------|
|-17-16--10-9-8--4-3-|
|-17-16--10-9-8--4-3-|
|-15-14--8--7-6--2-1-|
|--------------------|
This is the intro. Really.


|----------------------------------------------------------|
|----------------------------------------------------------|
|-------------------------------7-7-8--7-7-6--7-7-8--7-7-6-|
|-7-7-8--7-7-6--7-7-8--7-7-6----7-7-8--7-7-6--7-7-8--7-7-6-|
|-7-7-8--7-7-6--7-7-8--7-7-6----5-5-6--5-5-4--5-5-6--5-5-4-|
|-5-5-6--5-5-4--5-5-6--5-5-4-------------------------------|
Dun dun DUN! Dun dun DUN! =D