Login or Register to remove this ad. | Advertise Here

Battle with Ganon (Legend of Zelda: A Link to the Past) Bass Tab

Submitted: May 12, 2009 by auriplane

5
Average: 5 (1 vote)
Download | Listen
Game: Legend of Zelda: A Link to the Past
Composer(s): Koji Kondo
Style: Transcription
Series: Legend of Zelda

AutoScroll: Slow | Medium | Fast
        Legend of Zelda - A Link to the Past - Ganon Battle BASS TAB
                              Song by Koji Kondo

                   Tabbed by auriplane (crystal@panix.com)
                                On May 12, 2009

Six-string bass, standard tuning. 

C |----------------------------|
G |----------------------13--12|
D |----------13----15--13------| x9    (on repeats, x7)
A |----15--13----15--11----10--|
E |--15--11----13--------------|
B |13--------------------------|

C |----------------------14--13|
G |----------14----16--14------|
D |----16--14----16--12----11--| x5
A |--16--12----14--------------|
E |14--------------------------|
B |----------------------------|

C |----------------------13--12|----------------------------|
G |----------13----15--13------|----------12----14----17--16|
D |----15--13----15--11----10--|----14--12----14----17------|
A |--15--11----13--------------|--14--10----12----15----14--|
E |13--------------------------|12--------------------------|
B |----------------------------|----------------------------|

C |----------1820--------------|----------1719--------------|
G |--------18----20------16--15|--------17----19------15--14|
D |------16--------18--16------|------15--------17--15------|
A |----18------------14----13--|----17------------13----12--|
E |--18------------------------|--17------------------------|
B |16--------------------------|15--------------------------|

C |----------1618--1720------19|
G |--------16----18----20------|
D |------14--------------1817--|
A |----16----------------------|
E |--16------------------------|
B |14--------------------------|

1 comment on Battle with Ganon

Great TAB but...

5

awesome but it will be better on a 5 or 4-string bass