Login or Register to remove this ad. | Advertise Here

Wiosna (Katawa Shoujo) Guitar Tab

Submitted: Feb 15, 2012 by daniel guerra c...

5
Average: 5 (1 vote)
Download | Listen
Game: Katawa Shoujo
Composer(s): Blue123, Nicol Armarfi
Style: 2 or more instruments, Arrangement

This song is also called Opening Theme

Click here for a video example.

AutoScroll: Slow | Medium | Fast
Wiosna - Katawa Shoujo
Guitar Cover

Song : Wiosna (opening/menu/main theme)
Game : Katawa Shoujo
Cover: Daniel Guerra Caballero (original)
Video: http://youtu.be/VmyVKw1CNXs
Date : February 14, 2012
Mail : danielguerracaballero@gmail.com
web  : http://danielguerracaballero.blogspot.com


Intro

1-----------------------------------14---------14-10---------
2--14--14-12-10--------14--12-14-14----14-11---------12-10-9-
3---------------11--10---------------------------------------
4------------------------------------------------------------
5------------------------------------------------------------
6------------------------------------------------------------

1------------------------------------------------------------
2-12-14-12----12-15-14---------------------------------------
3----------15----------13-14-13-11-11------------------------
4------------------------------------------------------------
5------------------------------------------------------------
6------------------------------------------------------------


1st guitar

1------------------------------------------------
2-----------------7-6-2--------------------------
3-----3-3-6-------------3----6-4-3---------------
4-4-6------------------------------4---4-6-3-4---
5------------------------------------------------
6------------------------------------------------

1-------------------------------------------------------------
2--------------7-4----------4---------------------------------
3-----3-3-6--------3----------3--------3-4-4-3-1-1-3----1-----
4-4-6----------------4----------4-1-3-----------------------4-
5-------------------------------------------------------------
6-------------------------------------------------------------


2nd guitar

F#
1----------------------------------------------
2---------2----------------2-------------------
3-----3-----3-----------3----3----------------- (x2)
4---4---4-----4-------4---4----4---------------
5-4-------------4----------------4-------------
6-----------------2----------------------------

C# 
1----------------------------------------------
2-------2--------------------------------------
3-----1---1------------------------------------
4---3-------3----------------------------------
5-4-----------4--------------------------------
6----------------------------------------------

A# 
1----------------------------------------------
2---------4------------------------------------
3-----4-----4----------------------------------
4---4---4-----4--------------------------------
5-2-------------2------------------------------
6----------------------------------------------

F#
1----------------------------------------------
2---------2----------------2-------------------
3-----3-----3-----------3----3----------------- (x2)
4---4---4-----4-------4---4----4---------------
5-4-------------4----------------4-------------
6-----------------2----------------------------

Repeat twice, then

F#
1----------------------------------------------
2----------------------------------------------
3---------3------------------------------------
4-----3-----4----------------------------------
5---4---4-----4--------------------------------
6-2-------------2------------------------------

F#
1----------------------------------------------
2---------2----------------2-------------------
3-----3-----3-----------3----3-----------------
4---4---4-----4-------4---4----4---------------
5-4-------------4----------------4-------------
6-----------------2----------------2-----------

F# (end)
1----------------------------------------------
2----------------------------------------------
3-3--------------------------------------------
4-4--6--4--------------------------------------
5----4--4--------------------------------------
6----------------------------------------------