Login or Register to remove this ad. | Advertise Here

Shadow of the Truth (Katawa Shoujo) Guitar Tab

Submitted: Jan 30, 2012 by daniel guerra c...

5
Average: 5 (3 votes)
Download | Listen
Game: Katawa Shoujo
Composer(s): Blue123, Nicol Armarfi
Style: Arrangement

Click here for a video example.

AutoScroll: Slow | Medium | Fast
Katawa Shoujo - Shadow of the Truth
Guitar Cover

Game  : Katawa Shoujo
Cover : Daniel Guerra Caballero (original version)
Site  : http://danielguerracaballero.blogspot.com
Mail  : danielguerracaballero@gmail.com
Video : http://youtu.be/0hxSNFmz76s
Date  : January, 2012

Piano (back) HH bridge

1--------------------------------------------------|    |-------------------------
2--------------------------------------------------|    |-------------------------
3-11-10-11-10--10-8-10-8--11-10-11-10--13-11-13-15-|(x3)|-8-10-11-13--------------
4--------------------------------------------------|    |-------------------------
5--------------------------------------------------|    |-------------------------
6--------------------------------------------------|    |-------------------------

HH middle

1----------------------------------------------|    |-------|    |----------------
2--------------------------------------------9-|    |-------|    |---9---9---9--9-
3-11-10-11-10-11-10-11-10--10-8-10-8-10-8-10---|(x3)|-11-10-|(x4)|-7---7---7---7--
4----------------------------------------------|    |-------|    |----------------
5----------------------------------------------|    |-------|    |----------------
6----------------------------------------------|    |-------|    |----------------

1-------|    |----------------------|-------|    |----------------------|------|---
2-------|    |-------------------9--|-------|    |----------------------|------|---
3-11-10-|(x4)|-10-8-10-8-10-8-10----|-13-11-|(x4)|-10-8-10-8-10-8-10-11-|13-11-|(x4)
4-------|    |----------------------|-------|    |----------------------|------|---
5-------|    |----------------------|-------|    |----------------------|------|---
6-------|    |----------------------|-------|    |----------------------|------|---

1------|    |-----|    |-----------------------|
2------|    |-----|    |-----------12-11-------|
3-10-8-|(x4)|-8-7-|(x4)|-13-11-10--------13-11-|
4------|    |-----|    |-----------------------|
5------|    |-----|    |-----------------------|
6------|    |-----|    |-----------------------|

1-------|    |----------------------| 
2-------|    |----------------------|
3-13-11-|(x4)|-10-8-10-8-10-8-10-11-| (x2)
4-------|    |----------------------|
5-------|    |----------------------|
6-------|    |----------------------|

1-------|    |----------------------
2-------|    |----------------------
3-13-11-|(x4)|-10-8-10-8-10-8-10-8-7
4-------|    |----------------------
5-------|    |----------------------
6-------|    |----------------------


Piano (light) (00:14-00:36) HH middle

1----------------------------------------------------18-18-18---------
2----14-14--------14-14-15-11-9-11------------------------------------
3-11-------11--11------------------8-10-11-13-------------------------
4---------------------------------------------------------------------
5---------------------------------------------------------------------
6---------------------------------------------------------------------

Keys & ohters (00:51-01:16) HH middle

1----------9-11--4-2-----11---------------------------------------
2---------------------------11-9-7--------------------------------
3-11-10-11-------------------------8----/8-11-10-11-(13)-11-------
4-----------------------------------------------------------------
5-----------------------------------------------------------------
6-----------------------------------------------------------------

(01:20-01:35) HH bridge
1-------|    |----------------------|    
2-------|    |----------------------|    
3-13-11-|(x4)|-10-8-10-8-10-8-10-11-|
4-------|    |----------------------|    
5-------|    |----------------------|    
6-------|    |----------------------|    

1-------|    |------------------------------|    
2-------|    |------------------------------|    
3-13-11-|(x4)|-10-8-10-8-10-8-10-10-7-------|
4-------|    |------------------------------|    
5-------|    |------------------------------|    
6-------|    |------------------------------|  


Flute? (01:39-01:58) HH middle

1---------------------------------------------------------------------
2-------9-11-12-11-9----9-7-6-7-4/9-7-11--12----12-11-9--------9-11---
3-10-11--------------11---------------------------------11-8-11-----8-
4---------------------------------------------------------------------
5---------------------------------------------------------------------
6---------------------------------------------------------------------

Arpegio 

 Main (0:37-01:34)(01:43-02:04)     (01:35-01:42)    End
1---------------------------------|--------------|-----------
2---------------------------------|--------------|-----------
3---------------------------------|--------------|----7------
4-------------------------6-------|--------------|-----------
5---6-9-8---6-8-9---6-9-6---9-8-9-|---6-11-9-8---|----5------
6-6-------6-------7---------------|--------------|-----------

4 comments on Shadow of the Truth

Another great tab. This song

5

Another great tab. This song makes me feel depressed

Thx!

Thanks my friend.

awesome~

5

awesome~

Thanks

Thanks buddy.